Oops, an error
Loading. Please wait.

A Minor Prelude Tab

529 views 18 this week
no commentswrite comment
1 2 3 4 5
2 more votes to show rating
add to favorites
launch autoscroll
font size
0
reset
how to read this tab
guitar tuner
×
Best way to learn
"A Minor Prelude"
Autoscroll
slow
fast
+/-
esc
set tempo
stop
Legend
------

 h  = hammer-on
 p  = pull-off
 B  = bend
 r  = bend release
 /  = slide up/down
<5> = natural harmonic
[5] = artifical harmonic
 ~  = vibrato
 tr = trill

#Tabbed by Greg Motlasz <rdruin@ Comments and corrections are welcome.

Rik Emmett
A Minor Prelude

From the Album 'Never Surrender'.  It sounds like it hangs at the end because 
it moves from the final note into another song.  Played in 4/4 time briskly.


E|--------------------------------------|----0----1----0-------------------
B|----------------0----1p0----1----3----|-------------------3----1----3----
G|----2p0----2--------------------------|----------------------------------
D|---------------------2----------------|----------------------------------
A|----0---------------------------------|----------------------------------
E|--------------------------------------|----------------------------------


E|------------------------------|------------------------------------------
B|----1h3p1p0-------------------|----------------0----1----3----1h3h1p0----
G|---------------2----1----0----|----2p0----2------------------------------
D|------------------------------|------------------------------------------
A|------------------------------|------------------------------------------
E|------------------------------|----3-------------------------------------


E|---------0--------------0----2----|-----^------------------------------
B|--------------3-------------------|-----^-----------0----1----3----1h3p
G|----2--------------2--------------|----2^p0----2-----------------------
D|----------------------------------|----3^------------------------------
A|----------------------------------|----3^------------------------------
E|----------------------------------|-----^------------------------------


E|---------------------|----------------------------------------------------
B|----1p0--------------|----------------------------------------------------
G|-----------2----1----|----2--------4--------7--------10---------9---------
D|---------------------|-----------------------------------------------9----
A|---------------------|-----------------------------------------11---------
E|---------------------|----2-----------------7-----------------------------


E|---------------------------12----|------------------------------------
B|----------------------------9----|------------------------------------
G|---------9------------------9----|------------------------------------
D|------------------9---------9----|------------------------------------
A|--------11-----------------------|------------------------------------
E|---------------------------------|------------------------------------


E----|------------------------------------------------------------------
B----|----10---------------12---------------13---------------12---------
G----|----------9----------------9----------------9----------------9----
D----|---------------10---------------10---------------10---------------
A----|------------------------------------------------------------------
E----|------------------------------------------------------------------


E|----------|----13---------------12--------------------------------------
B|----------|--------------------------------------13---------------12----
G|----------|----------9----------------9----------------9----------------
D|----10----|---------------10---------------10---------------10----------
A|----------|-------------------------------------------------------------
E|----------|-------------------------------------------------------------


E|---------------|---------------------------------------------------------
B|---------------|----9--------------10--------------12--------------10----
G|----9----------|---------9---------------9---------------9---------------
D|---------10----|--------------9---------------9---------------9----------
A|---------------|---------------------------------------------------------
E|---------------|---------------------------------------------------------


E|---------------------------------------------------|----12---------------
B|--------------9--------------10--------------12----|----------13---------
G|----9--------------9---------------9---------------|----------------0----
D|---------9--------------9---------------9----------|---------------------
A|---------------------------------------------------|---------------------
E|---------------------------------------------------|---------------------


E|----10---------------8---------------10---------------8---------------
B|----------12--------------10---------------12--------------10---------
G|----------------0---------------0----------------0---------------0----
D|----------------------------------------------------------------------
A|----------------------------------------------------------------------
E|----------------------------------------------------------------------


E|----7--------------8---------------7--------------|---------------------
B|---------8--------------10--------------8---------|----10---------------
G|--------------0---------------0--------------0----|----------11---------
D|--------------------------------------------------|----------------0----
A|--------------------------------------------------|---------------------
E|--------------------------------------------------|---------------------


E|--------------------------------------------------------------------------
B|----8--------------7--------------5--------------3--------------3---------
G|---------9--------------7--------------6--------------0--------------0----
D|--------------0--------------0--------------0--------------4--------------
A|--------------------------------------------------------------------------
E|--------------------------------------------------------------------------


E|--------------|-----------------------------------------------------------
B|--------------|-------------------0--------------1--------------3---------
G|--------------|----2-------------------2--------------2--------------2----
D|----4----0----|---------3-------------------3--------------3--------------
A|--------------|--------------3--------------------------------------------
E|--------------|-----------------------------------------------------------


E|---------0-------------------------------------------------|--------------
B|--------------3---------3--------------1--------------0----|----1---------
G|-------------------2---------2--------------2--------------|---------2----
D|----3-----------------------------3--------------3---------|--------------
A|-----------------------------------------------------------|--------------
E|-----------------------------------------------------------|--------------


E|---------------------------------------3--------------1--------------0----
B|---------0--------------1-------------------------------------------------
G|--------------2--------------2--------------2--------------2--------------
D|----2--------------2--------------2--------------2--------------2---------
A|--------------------------------------------------------------------------
E|--------------------------------------------------------------------------


E--------------------------------------------|-----------------------------
B--------------3--------------1--------------|----0--------------3---------
G----2--------------2--------------2---------|---------1--------------1----
D---------2--------------2--------------2----|-----------------------------
A--------------------------------------------|-----------------------------
E--------------------------------------------|--------------0--------------


E|---------0----------------------------------|---------0---------------
B|--------------3---------3-------------------|--------------0----------
G|-----------------------------1--------------|-------------------------
D|----2--------------2--------------3---------|----9--------------10----
A|--------------------------------------------|-------------------------
E|---------------------------------------0----|-------------------------


E|----0---------------0---------------0---------------0---------------0----
B|---------0---------------0---------------0---------------0---------------
G|-------------------------------------------------------------------------
D|--------------12--------------15--------------14--------------12---------
A|-------------------------------------------------------------------------
E|-------------------------------------------------------------------------


E|---------------0--------------
B|----0---------------0---------
G|------------------------------
D|---------10--------------9~~~~
A|------------------------------
E|------------------------------0
Suggest correction
Give kudos to tab author, rate the tab!
1 2 3 4 5
comments
print report bad tab
guest
You may want to rate the tab now too:
select rating
Wanna post a correction for this tab? Suggest correction