Oops, an error
Loading. Please wait.

Agnus Dei Tab

182 views 3 this week
no commentswrite comment
1 2 3 4 5
3 more votes to show rating
add to favorites
launch autoscroll
font size
0
reset
how to read this tab
guitar tuner
×
Best way to learn
"Agnus Dei"
Autoscroll
slow
fast
+/-
esc
set tempo
stop
E|----------------|1-------------1-|0---3-------1-0-|1---------------|
B|----------------|--3--------3----|--2-------------|--3-4-------3---|
G|------------2---|----0-----------|----------------|----------------|
D|0---------------|0---------------|----------------|0---------------|
A|--------4-------|------2---------|4--------0------|----------------|
E|----------------|----------------|----------------|---------3------|


E|------------0---|1---------------|----1---0---4---|5---0-----------|
B|2---0-----------|----2---3-------|----------------|--------1---0---|
G|--------2-------|------------2---|1---------------|--------------2-|
D|----------------|0---------------|--------0-------|--------2-------|
A|0-------4-------|----------------|----------------|3---0-----------|
E|----------------|--------1-------|0---------------|------------0---|


E|------------3---|2-5-8-------6-5-|6-3-0-----------|--0-3-------1--0|
B|----------------|----------------|------------3---|2---------------|
G|2---------------|----------------|0---------------|----------------|
D|------------1---|0-------4-------|----------------|----------------|
A|0---2---3-------|----------------|--------1-------|0-------4-------|
E|----------------|----------------|----------------|----------------|


E|1---------------|------------0---|--0-6-------5-3-|1---0-3---------|
B|--3-------------|0-3-6---------3-|2---------------|------------2---|
G|----1-------2---|----------------|----------------|--------2-------|
D|0---------------|----------------|----------------|0---------------|
A|----------------|----------------|0-------4-------|--------0---0---|
E|--------1-------|4-------0-------|----------------|----1-----------|


E|----------------||
B|3---------------||
G|----------------||
D|3---------------||
A|5---------------||
E|----------------||
Suggest correction
Give kudos to tab author, rate the tab!
1 2 3 4 5
comments
print report bad tab
guest
You may want to rate the tab now too:
select rating
Wanna post a correction for this tab? Suggest correction