Oops, an error
Loading. Please wait.

Aleluya Del Tab

160 views 3 this week
no commentswrite comment
1 2 3 4 5
3 more votes to show rating
add to favorites
launch autoscroll
font size
0
reset
how to read this tab
guitar tuner
×
Best way to learn
"Aleluya Del"
Autoscroll
slow
fast
+/-
esc
set tempo
stop
(jolomé)
Guitarra solista

E||----------------------|------------------------|-------------------------|
B||--3---------0---------|--3---------0-------3-3-|--3--3----3-3-3--3----3--|
G||---------2-----2------|---------2-----2--------|-------------------------|
D||----------------------|------------------------|-------------------------|
A||----------------------|------------------------|-------------------------|
E||----------------------|------------------------|-------------------------|


----------------------|--0---------2--0------|--0---------2--0----0-0-|
--2--3----2--3--------|----------------------|------------------------|
----------------------|---------2------------|---------2--------------|
----------------------|----------------------|------------------------|
----------------------|----------------------|------------------------|
----------------------|----------------------|------------------------|


--2--0----0-0-2--0----0--|--2--0----------------|---------------------|
-------------------------|--------3----3--------|-----------0----2----|
-------------------------|----------------------|--2------------------|
-------------------------|----------------------|---------------------|
-------------------------|----------------------|---------------------|
-------------------------|----------------------|---------------------|


-----------------------|------------------0-0-|----------0-0---------0-0-|
--3-----3------3--2----|--0-------------------|--3--2--------3--2--------|
-----------------------|-----------2----------|--------------------------|
-----0-----------------|----------------------|--------------------------|
-----------------------|----------------------|--------------------------|
-----------------------|----------------------|--------------------------|


--2--0----0-0-2--0------|---------------------|-----------------------|
------------------------|---------------------|-----------------------|
------------------------|---------------------|--0-----0------0-------|
------------------------|--0--------2----4----|------------------4----|
------------------------|---------------------|-----------------------|
------------------------|---------------------|-----3-----------------|


----------------------|--------------------------|------------------------|
----------------------|--------------------------|------------------------|
----------------------|--0-----------0-----------|--0-----------0---------|
--2--------0------0-0-|-----4----0-0----4----0-0-|-----4----0-0----4------|
----------------------|--------------------------|------------------------|
----------------------|--------------------------|------------------------|


-----------0----2----|--3-----3------3--2----|--0-------------------|
--3------------------|-----------------------|-----------3------3-3-|
---------------------|-----0-----------------|----------------------|
---------------------|-----------------------|----------------------|
---------------------|-----------------------|----------------------|
---------------------|-----------------------|----------------------|


---------------------0--0--|---------------------0--|
--2-------2-2-3--3-3-------|---------3-2-0--0-------|
-----2---------------------|--2---------------------|
---------------------------|------------------------|
---------------------------|------------------------|
---------------------------|------------------------|


-----------0----------0-----|--------2-------0-0-------|-----------0----2----|
--3--2--3----3-2--2-2----2--|----3-3----3--------2-----|--3------------------|
----------------------------|-----------------------2--|---------------------|
----------------------------|--------------------------|---------------------|
----------------------------|--------------------------|---------------------|
----------------------------|--------------------------|---------------------|


--3-----3------3--2----|--0-----------------|------------3--2-------|
-----------------------|-----------3--------|--3------3----------3--|
-----0-----------------|--------------------|-----------------------|
-----------------------|--------------------|-----------------------|
-----------------------|--------------------|-----------------------|
-----------------------|--------------------|-----------------------|


--3--2-------3--2-------|--3--2--------3--2--------|--3--2--------3--2--------|
----------3----------3--|----------3-3---------3-3-|----------3-3---------3-3-|
------------------------|--------------------------|--------------------------|
------------------------|--------------------------|--------------------------|
------------------------|--------------------------|--------------------------|
------------------------|--------------------------|--------------------------|


--3--2---------------|--------------------|-------------------|
---------------------|--0------------0----|-------------------|
----------------2----|--------------------|--2----------------|
---------------------|--------------------|-------------------|
---------------------|--------------------|-------------------|
---------------------|--------------------|-------------------|
Suggest correction
Give kudos to tab author, rate the tab!
1 2 3 4 5
comments
print report bad tab
guest
You may want to rate the tab now too:
select rating
Wanna post a correction for this tab? Suggest correction