Oops, an error
Loading. Please wait.

Alma Mia Tab

151 views 3 this week
no commentswrite comment
1 2 3 4 5
3 more votes to show rating
add to favorites
×
Save as Personal and add changes to this tab that will be seen only by you. Learn more ›
×
You can save this tab as Personal to edit and correct it or add notes. All changes will be seen only by you. Learn more »
save as personal
new!
launch autoscroll
font size
0
reset
how to read this tab
guitar tuner
Autoscroll
slow
fast
+/-
esc
set tempo
stop
Este es un Vals clasico.

1|-0---0---0-2-4-2-0---5-----5-----7-------7-8-10-8-7/8-8--------|
2|---3-------------------5-5---5-5---9-9------------------10-10--|
3|---1-------------------5-5---5-5---9-9------------------10-10--|
4|---------------------------------------------------------------|
5|---------------------0-----0-----0-----0--------------0--------|
6|-0-----0-------------------------------------------------------|


1|-8-7-5-5-----5-7-8-5-----0-1-3-1-0-0-----0-1-3-1-0--------------0--|
2|---------6-6---------5-5-------------3-3-----------1---------------|
3|---------7-7---------5-5-------------1-1-----------2---------------|
4|-------0-----------------------------------------------------------|
5|-------------------0-------------------------------0--3-2-0--------|
6|-----------------------------------0------------------------3-1-0--|

1|-0---0---0-2-4-2-0---5-----5-----7-------7-8-10-8-7/8-8------------|
2|---3-------------------5-5---5-5---9-9------------------10-10------|
3|---1-------------------5-5---5-5---9-9------------------10-10------|
4|-------------------------------------------------------------------|
5|---------------------0-----0-----0-----0--------------0------------|
6|-0-----0-----------------------------------------------------------|


1|-8-7-5-5-----5-7-8-5-----0-1-3-1-0-0-----0-1-3-1-0-3---3-5---------|
2|---------6-6---------5-5-------------3-3-------------2-----5-------|
3|---------7-7---------5-5-------------1-1--------------------5------|
4|-------0-------------------------------------------0---------7-----|
5|-------------------0-------------------------------------5---------|
6|-----------------------------------0-------------------------------|

1|-1-----0---------0--------8---7-------7---7-------1----|
2|---0-0---3-2-3-4---1-1-10--10---8-8-8---8---7-7-3---3--|
3|---0-0-------------2-2----------9-9---------7-7--------|
4|-------------------------------------------------------|
5|-----------------3------------5-----------5------------|
6|-3-----------------------------------------------------|


1|-1-----0---------0--------8----7-------7---3-------------|
2|---0-0---3-2-3-4---1-1-10---10---8-8-8---8---5---1-------|
3|---0-0-------------2-2-----------9-9-----------4---0-----|
4|-----------------------------------------------------2---|
5|-----------------3-------------5-----------------3-----3-|
6|-3-------------------------------------------------------|

Cualquier consulta escribanme a ivnz@
Suggest correction
Give kudos to tab author, rate the tab!
1 2 3 4 5
comments
print report bad tab
guest
Wanna post a correction for this tab? Suggest correction