Oops, an error
Loading. Please wait.

Andante Tab

145 views 9 this week
no commentswrite comment
1 2 3 4 5
x 3
add to favorites
×
Save as Personal and add changes to this tab that will be seen only by you. Learn more ›
×
You can save this tab as Personal to edit and correct it or add notes. All changes will be seen only by you. Learn more »
save as personal
new!
launch autoscroll
font size
0
reset
how to read this tab
guitar tuner
Autoscroll
slow
fast
+/-
esc
set tempo
stop
Transcripción: Adrián Ballesteros Navarrete    adrianpmex@


*--*Especificaciones*--*


'Sin capotrasto'
Entonación Estándard: eadGBE


1|------------|-0-----0----|-1-----1----|-0-----0----|E
2|----0--1--3-|-1-----1----|-3-----3----|-1-----1----|B
3|-2----------|------------|------------|------------|G
4|------------|------------|------------|------------|d
5|------------|----0-----0-|----0-----0-|----0-----0-|a
6|------------|------------|------------|------------|e

1|------------|------------|------------|------------|E
2|-3--1--0----|-0-----0----|-3----3-----|-1-----1----|B
3|----------2-|-1-----1----|-4----4-----|-2-----2----|G
4|------------|------------|------------|------------|d
5|------------|------------|------------|----0-----0-|a
6|------------|----0-----0-|----0----0--|------------|e

1|------------|-0-----0----|-1-----1----|-0-----0----|E
2|----0--1--3-|-1-----1----|-3-----3----|-1-----1----|B
3|-2----------|------------|------------|------------|G
4|------------|------------|------------|------------|d
5|------------|----0-----0-|----0-----0-|----0-----0-|a
6|------------|------------|------------|------------|e

1|-1--0-------|--3--1--0----|---------------|E
2|-------3--1-|-----------3-|-1--0----------|B
3|------------|-------------|-------2--1--2-|G
4|------------|--0----------|---------------|d
5|------------|-------------|-------------0-|a
6|------------|-------------|-0-------------|e

1|----0-----0-|------------|------------|------------|E
2|-4-----4----|-0-----0----|-3-----3----|-1-----1----|B
3|------------|-1-----1----|-4-----4----|-2-----2----|G
4|------------|------------|------------|------------|d
5|------------|------------|------------|----0-----0-|a
6|------------|----0-----0-|----0-----0-|------------|e

1|----0-----0-|-1-----0----|------------|------------|E
2|-4-----4----|-3-----1----|-3-----1----|-1------0---|B
3|------------|------------|-4-----2----|-2------1---|G
4|------------|------------|------------|------------|d
5|------------|----0-----0-|----0-----0-|------------|a
6|------------|------------|------------|----0-------|e

1|----0-----0-|------------|------------|------------|E
2|-4-----4----|-0-----0----|-3-----3----|-1-----1----|B
3|------------|-1-----1----|-4-----4----|-2-----2----|G
4|------------|------------|------------|------------|d
5|------------|------------|------------|----0-----0-|a
6|------------|----0-----0-|----0-----0-|------------|e

1|---0-----0|----1-----0-|------------|------------0-|E
2|4-----4---|----3-----1-|----3-----1-|----------0---|B
3|----------|------------|----4-----2-|--------1-----|G
4|----------|-0-----0----|-0-----1----|------2-------|d
5|----------|------------|------------|----2---------|a
6|----------|------------|------------|-0------------|e

1|------------|-0-----0----|-1-----1----|-0-----0----|E
2|----0--1--3-|-1-----1----|-3-----3----|-1-----1----|B
3|-2----------|------------|------------|------------|G
4|------------|------------|------------|------------|d
5|------------|----0-----0-|----0-----0-|----0-----0-|a
6|------------|------------|------------|------------|e

1|------------|------------|------------|------------|E
2|-3--1--0----|-0-----0----|-3----3-----|-1-----1----|B
3|----------2-|-1-----1----|-4----4-----|-2-----2----|G
4|------------|------------|------------|------------|d
5|------------|------------|------------|----0-----0-|a
6|------------|----0-----0-|----0----0--|------------|e

1|------------|-0-----0----|-1-----1----|-0-----0----|E
2|----0--1--3-|-1-----1----|-3-----3----|-1-----1----|B
3|-2----------|------------|------------|------------|G
4|------------|------------|------------|------------|d
5|------------|----0-----0-|----0-----0-|----0-----0-|a
6|------------|------------|------------|------------|e

1|-1--0-------|--3--1--0----|---------------|E
2|-------3--1-|-----------3-|-1--0----------|B
3|------------|-------------|-------2--1--2-|G
4|------------|--0----------|---------------|d
5|------------|-------------|-------------0-|a
6|------------|-------------|-0-------------|e

1|------------|------------|------------|E
2|-------0----|-1-----1----|-3-----3----|B
3|-0--2-----0-|----0-----0-|----0-----0-|G
4|------------|------------|------------|d
5|------------|-3----------|-2----------|a
6|------------|------------|------------|e

1|-0-----0----|-1-----1----|E
2|------------|------------|B
3|----0-----0-|----0-----0-|G
4|------------|-0----------|d
5|-3----------|------------|a
6|------------|------------|e


1|-3-----1----|-0--------------|E
2|------------|-------3-----3--|B
3|----0-----0-|----0-----0-----|G
4|-2-----0----|----------------|d
5|------------|-3-----2-----2--|a
6|------------|----------------|e

1|------------|------------|------------|E
2|-------0----|-1-----1----|-3-----3----|B
3|-0--2-----0-|----0-----0-|----0-----0-|G
4|------------|------------|------------|d
5|------------|-3----------|-2----------|a
6|------------|------------|------------|e

1|-0-----0----|-1-----1----|E
2|------------|------------|B
3|----0-----0-|----0-----0-|G
4|------------|-0----------|d
5|-3----------|------------|a
6|------------|------------|e

1|-3-----1----|-0--------------|E
2|------------|-------3-----1--|B
3|----0-----0-|----0-----0-----|G
4|-2-----0----|----------------|d
5|------------|-3-----2-----3--|a
6|------------|----------------|e

1|------------|------------|------------|------------|E
2|------------|-0-----0----|------------|-1-----1----|B
3|----0-----0-|----0-----0-|----0-----0-|----0-----0-|G
4|-4-----4----|-3-----3----|-4-----4----|-2-----2----|d
5|------------|------------|------------|------------|a
6|------------|------------|------------|------------|e

1|------------|-1-----1----|-0-----0----|------------|E
2|------------|------------|------------|-3-----3----|B
3|----0-----0-|----0-----0-|----0-----0-|----0-------|G
4|-4-----4----|-0----------|------------|------------|d
5|------------|------------|-3----------|-2-----2----|a
6|------------|------------|------------|------------|e

1|------------|------------|------------|------------|E
2|------------|-0-----0----|------------|-1-----1----|B
3|----0-----0-|----0-----0-|----0-----0-|----0-----0-|G
4|-4-----4----|-3-----3----|-4-----4----|-2-----2----|d
5|------------|------------|------------|------------|a
6|------------|------------|------------|------------|e

1|----------|-1-----1----|-0-----0----|--------------|E
2|----------|------------|------------|3-----3-----1-|B
3|---0-----0|----0-----0-|----0-----0-|---0-----0----|G
4|4-----4---|-0----------|------------|--------------|d
5|----------|------------|-3----------|2-----2-----3-|a
6|----------|------------|------------|--------------|e

1|------------|-0-----0----|-1-----1----|-0-----0----|E
2|----0--1--3-|-1-----1----|-3-----3----|-1-----1----|B
3|-2----------|------------|------------|------------|G
4|------------|------------|------------|------------|d
5|------------|----0-----0-|----0-----0-|----0-----0-|a
6|------------|------------|------------|------------|e

1|------------|------------|------------|------------|E
2|-3--1--0----|-0-----0----|-3----3-----|-1-----1----|B
3|----------2-|-1-----1----|-4----4-----|-2-----2----|G
4|------------|------------|------------|------------|d
5|------------|------------|------------|----0-----0-|a
6|------------|----0-----0-|----0----0--|------------|e

1|------------|-0-----0----|-1-----1----|-0-----0----|E
2|----0--1--3-|-1-----1----|-3-----3----|-1-----1----|B
3|-2----------|------------|------------|------------|G
4|------------|------------|------------|------------|d
5|------------|----0-----0-|----0-----0-|----0-----0-|a
6|------------|------------|------------|------------|e

1|-1--0-------|--3--1--0----|-----------------|E
2|-------3--1-|-----------3-|-1--0------------|B
3|------------|-------------|-------2--1h2--2-|G
4|------------|--0----------|---------------2-|d
5|------------|-------------|---------------0-|a
6|------------|-------------|-0---------------|e

 
Cualquier duda o sugerencia, escribir a:  

drianpmex@
Suggest correction
Give kudos to tab author, rate the tab!
1 2 3 4 5
comments
print report bad tab
guest
Wanna post a correction for this tab? Suggest correction