Oops, an error
Loading. Please wait.

Aria Chords

78 views 1 this week
no commentswrite comment
1 2 3 4 5
3 more votes to show rating
add to favorites
launch autoscroll
font size
0
reset
transpose
0
reset
display chords
guitar tuner
Autoscroll
slow
fast
+/-
esc
set tempo
stop
Help us to improve Ultimate-Guitar.com Take our survey!
×
|     |     |     |       |     |     |     |       |     |     |     |
e|-------------------0-----|-5-----------4-----------|-5-----------------0----|
B|-------------------------|-------------5-----------|-------2-----3----------|
G|-------------------------|-------2-----------------|-2-----2-----4-----1----|
D|-------------------------|-------------------2-----|------------------------|
A|-------------------------|-------------------------|------------------------|
E|-------------------------|-------------------------|------------------------|

e|-------------------0-----|-------------7-----5-----|-4-----2--0--2----------|
B|-2-----------0-----------|-4-----2--0--------------|-------------4-----5--4-|
G|-2-----------------------|-4-----------------2-----|-4----------------------|
D|-------------2-----------|-------------6-----------|------------------------|
A|-------0-----------------|-------------------------|-------------2----------|
E|-------------------------|-------------------------|------------------------|

e|-0-----------------------|
B|-0-----------------------|
G|-1-----------------------|
D|-2-----------------------|
A|-------2-----------------|
E|-------------0-----------|


(Parte II)

   |     |     |     |       |     |     |     |       |     |     |     |
e|-------------------------|-------------------------|-------------------0----|
B|-------------------------|-0-----------------2-----|-3----------------------|
G|-------------------1--2--|-------1-----------2-----|-4-----------------1----|
D|-------------------------|-------------2-----------|-------2----------------|
A|-------------------------|-------------------------|------------------------|
E|-------------------------|-------------------------|-------------0----------|

e|-------------2-----------|-------------------0-----|-2-----------4----------|
B|-2-----------------3--2--|-0-----------------------|-3-----------3----------|
G|-2-----4--2--------------|-1-----------------------|------------------------|
D|-------------0-----0-----|-2-----------------------|-0----------------------|
A|-------4-----------------|-------2-----------4-----|-------------2----------|
E|-------------------------|-------------0-----------|------------------------|

e|-5-----4--2--0-----------|-------------------------|------------------------|
B|-5-----------------3-----|-2-----------0-----------|------------------------|
G|-------------------------|-2-----------1--------2--|-2----------------------|
D|-------------------0-----|-2-----------------------|-------2----------------|
A|-4-----------------------|-------------------------|-------------0----------|
E|-------------------------|-------------0-----------|------------------------|
Suggest correction
Give kudos to tab author, rate the tab!
1 2 3 4 5
comments
print report bad tab
guest
You may want to rate the tab now too:
select rating
Wanna post a correction for this tab? Suggest correction