Oops, an error
Loading. Please wait.

Bach - 1007 Preludio Tab

171 views 1 this week
no commentswrite comment
1 2 3 4 5
3 more votes to show rating
add to favorites
launch autoscroll
font size
0
reset
how to read this tab
guitar tuner
Autoscroll
slow
fast
+/-
esc
set tempo
stop
Help us to improve Ultimate-Guitar.com Take our survey!
×
Esta es una gran cancion de Bach (muy conocida en el cello)
"espero les sirva"

1
e|-----2-0-2---2-------2-0-2---2---|-----3-2-3-----------3-2-3---3---|
B|---------------------------------|---0-------0---0---0-------0---0-|
G|---2-------2---2---2-------2---2-|---------------------------------|
D|-0-------0---------------0-------|---------2---0---------------0---|
A|-------------0---------------2---|---------------------4-----------|
D|-----------------0---------------|-0---------------0---------------|


3
e|-----3-2-3---3-------3-2-3---3---|-----2-0-2---2-------2-0-2---2---|
B|---2-------2---2---2-------2---2-|---3-------3---3---3-------3---2-|
G|---------------------------------|---------------------------------|
D|---------2---0---------------2---|---------------------------------|
A|-------------------------0-------|---------0-------2-------4-------|
D|-0---------------0---------------|-0-------------------------------|


5
e|-----2-0-2-----------------------|-----0---0---0-------0---0---0---|
B|---0-------3-2-3-0-3-2-3---------|---3---3---3---3---3---3---3---3-|
G|---------------------------2-1---|-1---------------1---------------|
D|---------0-------2-------4-----4-|-----4---2---0-------------------|
A|---------------------------------|-----------------4---2---0-------|
D|-0-------------------------------|-----------------------------6---|


7
e|---0-5-4-5-0---0---0---0---------|---------------------------------|
B|-2-----------3---2---3-----2-0---|-----3-2-3---3-------3-2-3---3---|
G|-2-----------------------2-----2-|---------------------------------|
D|---------------------------------|---4-------4---4---4-------4---4-|
A|-0---------------0---------------|-2---------------0-------2---0---|
D|---------------------------------|---------------------------------|


9
e|-----------------------5-4-2-0---|-------5-0-5---0-------0---------|
B|---0---0---------3-2-0---------3-|-2-0---------2-----0-2---3-2-0---|
G|-----2---2-1---------------------|-----2-----------2-------------2-|
D|-------------4-2-----------------|---------------------------------|
A|---------------------------------|-0---------------0---------------|
D|-6---------------2---------------|---------------------------------|


11
e|-----------------2---------------|-----0-2-3-0---------0-2-3-0-----|
B|-4-----0-----4---------0-----4---|---0---------0-----0---------2-0-|
G|-----5---5---------2-5---5-2---2-|-0-------------2-0---------------|
D|---7-------7-4-7-------------4---|---------------------4---2-------|
A|-0-------6-------0---------------|---------------------------------|
D|---------------------------------|-5-------------------------------|


13
e|---------0---0-----------0---0---|-------------0-------------------|
B|---2---2---2---2---2---2---2---2-|-3-2-0-3-2-3---2-3-2-0-----------|
G|-3---3---0-------3---3-----------|---------0-------------2-0-------|
D|-------------4---2-------0-------|-------------2-------------4-2---|
A|-----------------------------3---|-2---------------2-------------5-|
D|-4-------------------------------|---------------------------------|


15                                   C4
e|---------------------------------|---------------------------------|
B|---------------------------------|-----1-0-1---1-------1-0-1---1---|
G|---0-2-0-2-0-2-0---0-2-0-2-0-2-0-|---------------------------------|
D|---------------------------------|-0-4-------4---4-0-4-------4---4-|
A|-4---------------4---------------|---------------------------------|
D|-----------------2---------------|---------0-----------------------|


17                                     C2
e|---------------------------------|-----3-2-3---3-------3-2-3---3---|
B|-----0---0---0-------0---0---0---|---2-------2---2---2-------2---2-|
G|---0---2---0---0---0---2---0---0-|---------------------------------|
D|-0---------------0---------------|-0---------------0---------------|
A|---------------------------------|---------------------------------|
D|---------0---------------0-------|---------0-----------0-----------|


19                                   C6
e|-----2-0-2-----------------------|---------------------------------|
B|---3-------3-2-0-----------------|---------------------------------|
G|-----------------2-0-------------|-------6-7---6-7-------6-7---6-7-|
D|-0-------------------4-2-0-------|-----9-----9---------9-----9-----|
A|---------------------------4-2-0-|---7---------------7-------------|
D|---------0-----------------------|-6---------------6---------------|


21                                               (*
e|---------------------------------|---------2-4--5------------------|
B|-------0-2---0-2-------0-2---0-2-|-------2------2------------0-2-3-|
G|-----2-----2---------2-----2-----|-----2--------2--------0-2-------|
D|---2---------------2-------------|---2----------2----2-4-----------|
A|---------------------------------|--------------0------------------|
D|-5---------------5---------------|-5-------------------------------|


23                                                   C2
e|-0-----------0-2-3-0-----0-2-3-5-|-6-5-4-5-5-3-2-5-3-0----------------|
B|---2---0-2-3---------2-3---------|-2-------3-------2---2-0------------|
G|-----2---------------------------|-2-------3---------------2-0---0----|
D|-----------------0---------------|-----------------------------4------|
A|-0-------------------------------|-0---------------0------------------|
D|---------------------------------|------------------------------------|


25
e|---------0-2-3-0-2---------------|-----------0-2---4-1-0-1-1-0---0-|
B|-------2-----------3-------------|---------3-----3-0-----0-----4---|
G|-----2---------------2-0---------|-------2-------------------------|
D|---2---------------------4-0-2-4-|---0-4-----------2---------------|
A|-0---------------0---------------|-0---------------0---------------|
D|---------------------------------|---------------------------------|


27
e|-0-----------------------0-4-5-4-|-5-0-------0---------------------|
B|---3-2-3-0-----------0-3---------|-----2-0-2-----2-----------------|
G|-----------2-1-----1-------------|-------------2-----2-1-----------|
D|---------------4-2-------0-------|-----------------2-----4-2-0-----|
A|---------------------------------|-0-----------------------0---4-2-|
D|---------------------------------|---------4-----------------------|


29     C2
e|-----3-2-0---------3-2-0---------|---2-0-------------0-------------|
B|-----------3-2-0---------3-2-0---|-------3-2-0---------3-2-0-------|
G|-----------------2---4---0-----2-|-0-----------2-0-----------2-0---|
D|-------------0---2-----------0---|-----------------4-------0-----4-|
A|-0---2---4-----------------------|-2---------------0---2-----------|
D|---------------------------------|-----------------------------0---|


31 C2
e|-----------0---0---0---0---0---0-|---0---0---0---0---0---0---0---0|
B|---3-2-0-2-------0---2---3---0---|-2-------3---0---2-------3---0--|
G|-------------2---------------1---|-----2---------------2----------|
D|-2---------------0---2---4-------|-2-------4---0---2-------4---0--|
A|---------0---4-------------------|-0---4---------------4----------|
D|-5-------------------------------|--------------------------------|


33
e|---0---0---0---0---0---0---0---0-|---0---0---0---0---0---0---0---0-|
B|---------------------------------|------------------------10-------|
G|-6-----------6---7---9--11-------|-9--11--12------11--12------11---|
D|-----7---9-----------------------|---------------------------------|
A|-0---------------------------0---|-------------0-------------------|
D|---------------------------------|---------------------------------|


35
e|---0---0---0---0---0---0---0---0-|---0---0---0---0---0---0---0---0-|
B|---------------------------------|---------------------------------|
G|12--11--12---9--11---9--11---7---|-9---7---9---6---7---6---7---4---|
D|---------------------------------|---------------------------------|
A|---------------------------------|---------------------------------|
D|---------------------------------|---------------------------------|


37
e|---0---------------------0---1---|-2---3---4---5---6---7---8---9---|
B|-------0-1---2---3---4-----------|---------------------------------|
G|-6---2---2---3---4---5---0---1---|-2---3---4---5---6---7---8---9---|
D|---------------------------------|---------------------------------|
A|-----------0---0---0---0---0---0-|---0---0---0---0---0---0---0---0-|
D|---------------------------------|---------------------------------|


39
e|10------10--10--10------10--10---|10------10--10--10------10--10---|
B|---7---7---7---7---7---7---7---7-|---------------------------------|
G|-----7---------------7-----------|---9---9---9---9---9---9---9---9-|
D|---------------------------------|-----7---------------7-----------|
A|-0---------------0---------------|-0---------------0---------------|
D|---------------------------------|---------------------------------|


41 rit                              (*
e|-9-------9---9---9-------9---9---|10-)----------------------------||
B|---------8---8---8-------8---8---|-7-(----------------------------||
G|---9---9---9---9---9---9---9-----|-7-)----------------------------||
D|-----7---------------7-----------|-0-(----------------------------||
A|-0---------------0-----------0---|-0-)----------------------------||
D|---------------------------------|-0-(----------------------------||


Cualquier duda comentario queja correccion amenaza peticion
reemplazo plagio o simplemente para solicitar ayuda
no duden en contactarme
Suggest correction
Give kudos to tab author, rate the tab!
1 2 3 4 5
comments
print report bad tab
guest
You may want to rate the tab now too:
select rating
Wanna post a correction for this tab? Suggest correction