Oops, an error
Loading. Please wait.

Bach - Air Tab

1,160 views 3 this week
no commentswrite comment
1 2 3 4 5
x 3
add to favorites
launch autoscroll
font size
0
reset
how to read this tab
guitar tuner
Autoscroll
slow
fast
+/-
esc
set tempo
stop
Help us to improve Ultimate-Guitar.com Take our survey!
×
Realmente es muy fácil de tocar y muy agradable de oír. El tab fué
generado con el software Desktop Guitarrist. Todas las notas son
exactas.

                                Air On A G String
                                  By J.S. Bach

|------0--------------------------|------0--------------------------|
|------1------1------1------1-----|------1------1------1------1-----|
|------0------0------0------0-----|------2------2------0------0-----|
|---------------------------------|---------------------------------|
|------3------3------2------2-----|------0--------------------------|
|---------------------------------|---------------------------------|


|----0----5----1-----------------------|----------------------------------|
|----1--------------3----1----0----1---|-----0-----0----------------------|
|--------------------------------------|-----0-----------2-----0----------|
|----3----3---------4---------3--------|----------------------------------|
|--------------------------------------|----------------------------------|
|--------------------------------------|-----------3-----------1-----1----|


|------3--------------------------|---3---0-------------------3---1--|
|------0------0------0------0-----|-------------------3---2----------|
|------0------0------0------0-----|-----------3---2------------------|
|-------------2------0------0-----|-----------0----------------------|
|---------------------------------|---4---------------0-------0------|
|------0--------------------------|----------------------------------|


|------1--------------------------|---0-----------------------1---0--|
|------3------3------3------3-----|-------3-----------1---0----------|
|------2------2------2------2-----|-----------2---0------------------|
|------0------0-------------------|----------------------------------|
|--------------------3------3-----|---2-------2----------------------|
|---------------------------------|-------------------3-------3------|


|-----0-----------------2-----3----|-------------------0---0--------------|
|-----1-----1-----1-----1----------|---1---1-------3-----------3---3---1--|
|-----0-----0-----0-----0----------|---2----------------------------------|
|----------------------------------|-------------------------------0------|
|-----3-----3-----2-----2----------|---0----------------------------------|
|----------------------------------|-------------------3---2--------------|


|--------------------------------------|----------------------------------|
|---0-----------0-------1---1---3---1--|----------------------------------|
|-------2---2--------------------------|---0------------------------------|
|---------------------------0---0------|-------------------0---3---2------|
|-----------3--------------------------|-------0---2---3---------------0--|
|---3----------------------------------|---3------------------------------|


|------0--------------------------|------0--------------------------|
|------1------1------1------1-----|------1------1------1------1-----|
|------0------0------0------0-----|------2------2------0------0-----|
|---------------------------------|---------------------------------|
|------3------3------2------2-----|------0--------------------------|
|---------------------------------|---------------------------------|


|----0----5----1-----------------------|----------------------------------|
|----1--------------3----1----0----1---|-----0-----0----------------------|
|--------------------------------------|-----0-----------2-----0----------|
|----3----3---------4---------3--------|----------------------------------|
|--------------------------------------|----------------------------------|
|--------------------------------------|-----------3-----------1-----1----|


|------3--------------------------|---3---0-------------------3---1--|
|------0------0------0------0-----|-------------------3---2----------|
|------0------0------0------0-----|-----------3---2------------------|
|-------------2------0------0-----|-----------0----------------------|
|---------------------------------|---4---------------0-------0------|
|------0--------------------------|----------------------------------|


|------1--------------------------|---0-----------------------1---0--|
|------3------3------3------3-----|-------3-----------1---0----------|
|------2------2------2------2-----|-----------2---0------------------|
|------0------0-------------------|----------------------------------|
|--------------------3------3-----|---2-------2----------------------|
|---------------------------------|-------------------3-------3------|


|-----0-----------------2-----3----|-------------------0---0--------------|
|-----1-----1-----1-----1----------|---1---1-------3-----------3---3---1--|
|-----0-----0-----0-----0----------|---2----------------------------------|
|----------------------------------|-------------------------------0------|
|-----3-----3-----2-----2----------|---0----------------------------------|
|----------------------------------|-------------------3---2--------------|


|--------------------------------------|----------------------------------|
|---0-----------0-------1---1---3---1--|----------------------------------|
|-------2---2--------------------------|---0------------------------------|
|---------------------------0---0------|-------------------0---3---2------|
|-----------3--------------------------|-------0---2---3---------------0--|
|---3----------------------------------|---3------------------------------|


|----------------------------------|------3--------------------------|
|---0-------0---1---0-------0------|---------------------------------|
|-------0---------------2-------0--|---------------------------3-----|
|-----------3---------------3------|------2------2------0------0-----|
|----------------------------------|---------------------------------|
|---3------------------------------|---------------------------------|


|---------0--------------3----1----0---|---0---1-------1---0------------------|
|--------------3----2------------------|-----------------------3---1---0------|
|----2---------------------------------|-----------------------------------2--|
|-------------------2------------------|---0-------0--------------------------|
|----4----2-------------------0--------|---------------3---------------3------|
|--------------------------------------|--------------------------------------|


|---------------------------------|-----------0-----1-----1-----0----|
|--------------0----0----1----3---|-----3----------------------------|
|----1----2-----------------------|----------------------------------|
|---------------------------------|----------------------------------|
|----2---------2----0---------0---|-----------------0-----2----------|
|---------------------------------|-----4-----------------------4----|


|--------------------------------------|---------------------------------|
|---3---1---0-------0---1---3---1---0--|---------------------------------|
|---------------2----------------------|------2--------------------------|
|-----------3-------0------------------|---------------------------------|
|---0----------------------------------|------0------0-------------------|
|--------------------------------------|--------------------3------3-----|


|-------------------0-------------|-----5-----------------3-----1----|
|----1---------1---------3----1---|----------------------------------|
|----2---------2------------------|----------------------------------|
|----0---------0---------2--------|-----0-----0----------------------|
|---------------------------------|-----------------3-----3----------|
|----2----1----0------------------|----------------------------------|


|---0-------3----------------------|---------------------------------|
|-------3-------------------0---1--|------0--------------------------|
|---------------0---2---2----------|-------------2------0------------|
|-----------------------0----------|---------------------------------|
|---2-------2-------3--------------|---------------------------------|
|----------------------------------|------3-------------1------1-----|


|-----------------------0----------|-----------------------1-----0----|
|-----1-----------------------3----|-----3-----------0----------------|
|-----0-----------2----------------|-----2-----------0----------------|
|----------------------------------|-----0----------------------------|
|----------------------------------|----------------------------------|
|-----0-----0-----1-----1----------|-----2-----2-----3-----3----------|


|---------0--------------3----1---|------1--------------------------|
|----3--------------1-------------|------3--------------------------|
|----4--------------2-------------|------2--------------------------|
|---------------------------------|------0------0-------------------|
|-------------------0----0--------|--------------------3------3-----|
|----4---------4------------------|---------------------------------|


|-----------------------------1---|----1---------0----0----0----1----3---|
|-------------------0----3--------|---------3----------------------------|
|----0---------0------------------|----0--------------0------------------|
|---------------------------------|--------------------------------------|
|----2----2--------------2--------|--------------3----1----3-------------|
|--------------3------------------|----3---------------------------------|


|-------------------0----3--------|-------------5-------------------|
|----1---------1------------------|---------------------------1-----|
|----2---------0---------0----3---|------3--------------------------|
|---------------------------------|------3------3------2------2-----|
|----0----0-----------------------|---------------------------------|
|--------------3------------------|---------------------------------|


|-----------------1----------------|-----------0---1---1---0----------|
|-----0-----3----------------------|-------3-----------------------3--|
|-----------------------------2----|---0---------------0-------2------|
|-----0-----------0----------------|----------------------------------|
|-----------------------3-----3----|---2---------------3--------------|
|----------------------------------|-------3-------------------1------|


|----------------------------------------------|--------------------------|
|---1---0-----------0---0---1---0-------0---1--|-------------1------------|
|-----------2---2-------------------2----------|-------------0------------|
|----------------------------------------------|-------------2------------|
|----------------------------------------------|-------------3------------|
|---3-----------1-------3---------------3------|--------------------------|
Suggest correction
Give kudos to tab author, rate the tab!
1 2 3 4 5
comments
print report bad tab
guest
You may want to rate the tab now too:
select rating
Wanna post a correction for this tab? Suggest correction