Oops, an error
Loading. Please wait.

Bach - Fuga En G Menor Tab

397 views 1 this week
no commentswrite comment
1 2 3 4 5
2 more votes to show rating
add to favorites
launch autoscroll
font size
0
reset
how to read this tab
guitar tuner
×
Best way to learn
"Bach - Fuga En G Menor"
Autoscroll
slow
fast
+/-
esc
set tempo
stop
    Johann Sebastien Bach
    Violin sonata numero unoe en g-menor (bvw1001) no.2..fuga
    para tocarla mas facil hay que transportarla a LA menor.


E||--------------------------|--------1------------0-----|
B||--5----5--5--5--3-1-3--0--|--1-----------0------------|
G||--------------------------|-----2--2--2--2--0---0-----|
D||--------------------------|-------------------3----2--|
A||--------------------------|---------------------------|
E||--------------------------|---------------------------|


-----5--5--5--5------3--0--|--1------------------0--0--0--|
--5-----3--------8-6-0-----|----------1-0-1-3-------------|
--------------5------------|--2---------------1-----2-----|
--3-----3------------2-----|--------0---------0-----------|
--------------7------------|-----0------------------3-----|
---------------------------|------------------------------|


----------------------8-----|--8--7-5-7-4-5--4-1-0-----5-----|
--5--3---3--0--1------5-----|----------------3-----3-1---0---|
-------5-1-----2--0---------|--7---------------------------2-|
--4------2------------0-----|----------------2---------------|
--2------------0----8----7--|--8-----------------------------|
----------------------------|--------------------------------|


--------2-3-7-0-----0-3-6-5-3-1-0-|--1-----0-1-5-----------5-3-------|
------3---------3-2---------------|------3-------3-1---3-6-----6-5-3-|
----4-----------------------------|----2-------------4---------------|
--2-------------------------------|--0-------------------------------|
------------------0---------------|----------------------------------|
----------------------------------|------------------3---------------|


--0-----------0---------0---------|--------1-0-----------0-------5---|
----0-1-----1---------1---3-0-1---|----0-3-----3-1-0-1---------5---3-|
--------1-2-----0---2-----------2-|--1-----------------2---0---------|
------------------4---------------|--2-----------------------3-------|
--3-------------------------------|------------------0---------------|
----------------------------------|----------------------------------|


--4-----8--8--8--7-5-7--7--|--6-5-6-4-5--3--1---0-----------|
--5-----5--5---------------|-------------2----------3---1---|
--------------7------7--7--|--5-------5-----2-0-0-----------|
--2-----7--7---------5--5--|----------3--2--0-----3-3-2-2-0-|
--------------8------------|--7-----------------------------|
-----0---------------------|--------------------------------|


------------------------1---------|-----12--12--12--12--10-8-10--7--|
----------------------3-------0---|---------------------------------|
--3-1-1-2-2---------2-------2---1-|---------------------------------|
--0-------------------------------|--7------------------------------|
------------3-2-0-2---------------|--0------------------------------|
--------------------------0-------|---------------------------------|


--8------13------7--------12-----|------10---10--10----10--8-7-8-------|
-----10--10--10--10--8-----------|---------------8-------------10--10--|
-----------------------10-12--9--|--10--10-9-10-----10-9---------------|
---------------------------------|-------------------------------------|
--0------------------------------|-------------------------------------|
---------------------------------|-------------------------------------|


--7------12--------------10------|-----8---8--8---8--7-5-7--8-7-|
--10--8--8---8--10---------------|--5--5---5--6-5--------8------|
----------------12--10-9-10------|-------7--------7-------------|
-----------------------------12--|------------------------------|
---------------------------------|------------------------------|
---------------------------------|------------------------------|


--5----0-10------10--8-7-8---10-8-|--7-------12-------12-----10-----|
--8--6-------8-6---------10-------|--10--8-7-----10-8-----0--0---0--|
---------10------9----------------|----------12-------11-----11-----|
----------------------------------|---------------------------------|
----------------------------------|---------------------------------|
----------------------------------|---------------------------------|


--3------8-----7--3--5--7--|--8--7--5------5--3-2-3--3--|
--5------------5--5--5--5--|--5--5--5--4-2-4------5--0--|
--4----0-8-----0--------0--|-----0----------------------|
-----7---7--4-----2--4-----|--7-----4------4------2-----|
---------------------------|---------------2------------|
---------------------------|-------------------------0--|


--3--2-0-2-----0---------0--|--0-----------------0-----------|
--1---------4--0------------|----------5-4-5-4-5-------------|
------------4-----2-0-2-----|--0-----------------------------|
--2----------------------4--|----4-2-4-4---------2--2--2--2--|
--0---------2--3---------0--|--2-------2---------------------|
----------------------------|--------------------0-----------|


---------------------------|---------------------------|
---------------------------|------------------3--3--3--|
------------1--2--2--2--2--|--2--0---0-----------------|
--4--0---0-----------------|-------3----2--3-----4-----|
--7----3----2--3-----0-----|--2---------4--5-----2-----|
---------------------------|---------------------------|


-----------------------0------|--0--2-3-2-0---0----7--7--7--|
--3--1-0-1--3-1-0-------------|-------------4---4-----5-----|
--1------2------2--0---0--2-0-|-----------------------0-----|
--2-------------2----4--------|--4--------------4-----------|
------------------------------|--1--------------0-----------|
------------------------------|-----------------------------|


--7------------5--5--3-2-3--3--|------8-7--7--6--6--7--7--4--|
------10-8-10--5--4---------5--|----5------5-----5-----4-----|
--9---------------4------------|-----------0-----------4-----|
--10-----------4------------2--|--7--------------4-----------|
-------------------------------|-----------------------------|
-------------------------------|-----------------------------|


--4--5--5--2--2--3--3--0--|--0--1--1--------8-6-7-----|
--3-----2-----1-----0-----|--0--------4--4---------4--|
--------------2-----0-----|--------2-----2---------2--|
--2-----2-----1-----2-----|---------------------------|
--------------------------|--3-----3-----2---------2--|
--------------------------|---------------------------|

aki empieza lo dificil:

--0--8-6-7--11--12--10--10--8--|--8---7--7--11--11--12--12--5--|
------------10--10------9------|--10--8--8------------------4--|
--0-------------12-------------|------------11--11--12--12-----|
------------9---10------9------|--7----------------------------|
--2----------------------------|-------------------------------|
-------------------------------|-------------------------------|


--5----7-3----2---2---2---2---2-|----2---2---2---2---7---5---7---3-|
--4------5----5---5---5---5---5-|----4---4---4---4---5---5---5---5-|
-----0------2---4---2---4---0---|--2---0---2-------0-------0-------|
--------------------------------|--------------4-------4-------2---|
--------------------------------|----------------------------------|
--------------------------------|----------------------------------|


----5---5---5---5---5---3---5---2-|--3---2---3---5---7---8----7---5---|
----5---4---5---2---4---4---4---4-|--5---4---5---7---8---10---8---7---|
----------------------------------|-----------------------------------|
--4---4---4---4-------------------|-----------------------------------|
------------------2---2---2---2---|-----------------------------------|
----------------------------------|----0---0---0---0---0----0---0---0-|


--3---2---3---5---7---5---7---9---|--11---9---11---12---14---15---14---12---|
--5---4---5---7---8---7---8-------|--------------------------12-------------|
------------------------------9---|--11---9---11---12---14--------14---12---|
----------------------------------|-----------------------------------------|
----------------------------------|-----------------------------------------|
----0---0---0---0---0---0---0---0-|-----0---0----0----0----0----0----0----0-|


--11---9---11---12---14---12---14---11---|
-----------------------------------------|
--11---9---11---12---14---12---14---11---|
-----------------------------------------|
-----------------------------------------|
-----0---0----0----0----0----0----0----0-|

esto es lo mas dificil

----0-------12-------0---12-10-8-10-7-4-0-|----------5---------5-------0-----|
---------12----12------0------------------|--------5---5---------8-6-8---2---|
------12----------12----------------------|------5-------5-----------------2-|
--2---------------------------------------|----7-----------7-----------------|
------------------------------------------|--0---------------7---------------|
------------------------------------------|----------------------------------|


-----------10----------10-8-7-8-5-2---|------3-5-6-3-----------3-5-------|
------6-10----10-6------------------3-|----3---------5-------6-----6-3---|
----7--------------7------------------|----------------5---5-----------4-|
--0------------------7----------------|--5---------------3---------------|
--------------------------------------|----------------------------------|
--------------------------------------|----------------------------------|


--3-0-----1-----------------------|----------0---------------0-------|
------2-----3-----4-1-----3-------|--------2---2-----------2---2-----|
--------2-----3-0-----2-----3-0---|------0-------0-------0-------0---|
--2-------0-------------3-------2-|----2-----------2---2-----------2-|
------------------3-------1-------|--0---------------0---------------|
----------------------------------|----------------------------------|


----------------------------------|----------------------------------|
----------3---------------3-------|----------3---------------3-------|
--------2---2-----------2---2-----|--------2---2-----------2---2-----|
----0-3-------3-0---0-3-------3-0-|----0-3-------3-0---0-3-------3-0-|
--0---------------0---------------|--1---------------1---------------|
----------------------------------|----------------------------------|


----------------------------------|------------1-------8-6-4-5-3-2-3-|
--------0-3-0-----------0-3-0-----|----------3---4-2-3---------------|
------1-------1-------1-------1---|--------2-------------------------|
----2-----------2---2-----------2-|----0-3---------------------------|
--2---------------2---------------|--0-------------------------------|
----------------------------------|----------------------------------|


--3-----10-----10------9--12--|------5---5--5--5--3-1-3--0--|
--2--------------------5------|----5---2-3--3--3------2-----|
-----2--10-----10--0---0--12--|-----------------------2-----|
--2-----7---7--7--------------|--3----------3--2------------|
--0------------0-----8--------|--0-------------0------------|
--------------------------12--|-----------------------------|


--1--0------------0------------|---------------------------|
-------3-4--2--3-----3-2-3-2-3-|--3------------------------|
--2------0-----1---------------|---------------------------|
--0------------------2---------|--3-----------2---------4--|
---------1-----2-----0---------|--5--5--5--5--5--3-2-3--0--|
-------------------------------|---------------------------|


---------------------------|-----3---3--3--3--1-0-1----0-1-|
--------0-----1------3-----|--3--1-0-1-----1---------3-----|
--0--0--0--0--0------------|---------2-----2---------0-----|
-----------------3-2-3--0--|--2------------0---------------|
--2------------------------|---------0---------------------|
---------------------------|-------------------------------|


--0--8--8--8--8--7-5-7--9--|--10--10--10--10--10--8-7-8--10----|
--1--5--5--5--5------------|----------------------5---5-----10-|
-----0--0--0--0--7-5-7--9--|--10--10--10--10--10----7----10----|
---------------------------|------0---0---0---0----------------|
---------------------------|-----------------------------------|
-----8--8--8---------------|-----------------------------------|


--7--8---5--7-5-3--5---1-------|-----0--0--0--0--1-0-------|
--6--5-8-5------3----5---3-0---|---------------------3--1--|
--0---------7------5---------0-|-----0--0--0--0--2-0-------|
---------3------2------0-------|---------------------3--2--|
-------------------------------|--3--3--3--2--0------2--3--|
-------------------------------|---------------------------|


-----3--3--3--3--5-3-1--0--|--5--7-8-8-7-5---8--3--1-0-----|
--0--1--1--1--1------------|--5------------8----1--0---3-1-|
---------------------0--0--|---------7-------------0-------|
--3--2--2--2--2------------|--3-----------------2----------|
--5-----------0------2--3--|-------------------------------|
---------------------------|-------------------------------|


----0---0---0---0---0---0---0---0-|------5-3-------------------------|
------3---1---0-------------------|----5-----6-5-3-1-0-3---3---3---3-|
------------------2---0-----------|----------------------2---1-------|
--------------------------3---2---|--3---------------------------4---|
--3-------------------------------|----------------------------------|
----------------------------------|----------------------------------|


------7---------------3-----------|------0---------------------------|
------------0-----0---------------|----------------------1-------3---|
----7---7-5---5-2-------3-2-0-2---|--0-----0-------------------------|
--------------------2-----------3-|----------3-2-3-0-2-----2-3-0---4-|
--7-------------------------------|----3---------------0-------------|
----------------------------------|----------------------------------|


--------------1---4---7------------|--------------7---------------7---|
------0---3-0---3---3---9----3-0---|------9---9-----------9---9-------|
--1-----1-----------------10-----1-|----7---7---7---7---7---7---7---7-|
----2------------------------------|----------------------------------|
-----------------------------------|----------------------------------|
-----------------------------------|--0---------------0---------------|


--------------5---------------5---|--------------10---------------10---|
------5---5-----------5---5-------|------9---9------------9---9--------|
----5---5---5---5---5---5---5---5-|--------9---9----9-------9---9----9-|
----------------------------------|----9----------------9--------------|
----------------------------------|------------------------------------|
--0---------------0---------------|--0----------------0----------------|


------5---5---8-------5---5---8---|--------------8---------------8-5-|
----5---5---5---5---5---5---5---5-|------7---7-----------7---7-------|
----------------------------------|----8---8---8---8---8---8---8-----|
----------------------------------|----------------------------------|
----------------------------------|----------------------------------|
--0---------------0---------------|--0---------------0---------------|


--5-4-2-0-12--12--12--10----10--10--|--10--8-7-8--8--8--7--7--5--|
-------------------------13-----0---|-------------5--5-----4-----|
--------------9---10----------------|--10------------------------|
--------------10----------------9---|-------------7--------4-----|
------------------12----------------|--11------------8-----------|
--0---------------------------------|----------------------------|


--4--5--5--2--2--3--3--0--|--0--1-0-1-5-8-0---2-7---0-3-7---|
--3-----------1-----0-----|--0--------------4-----4-------3-|
--------5-----------------|---------2-------2-------0-------|
--2-----------0-----------|---------------------------------|
--------------------------|--3--------------2---------------|
--------------------------|---------------------------------|


----6-5-3-5-0-1-----6-5-3-5-0-1---|--------1-0---7---0-1-------------|
--2-------------2-3-------------3-|----0-3-----3---3-----0-1-3-----0-|
--0-------------------------------|--1-------------------------1-2---|
------------------3---------------|----------------------------------|
--0---------------0---------------|--2-------------------------------|
----------------------------------|----------------------------------|


-----0--0--0--0---------7--|------------7------------5--|
-----------------3-2-3-----|--3--3-1-3-----1--1-0-1-----|
--------0------------------|--1--4-2-4-----4--2-1-2-----|
--------------3--3-2-3-----|--2------------2------------|
--3-----4-----5------------|----------------------------|
---------------------------|----------------------------|


--8--7--5-4-5-7-4--5--5--5--|--5------4-----3------1-----|
--4-------------3-----------|--0------5-----5------------|
-------------------5--5--5--|---------4-----2------2-----|
--4-------------2--2--2--2--|--2--0---0--------0---0-----|
----------------------------|-------3----2--4----4----0--|
----------------------------|----------------------------|


--1------0--8--5--6-5-6-4-5--|--4--1---0--4--5--7---8--4--|
------------5--5----------3--|--3----3----0-----6---5--0--|
--0------0--------7-5-7------|---------------5----7-------|
---------------3----------3--|--2----------------------2--|
--2--3-2-3--7----------------|----------------------------|
-----------------------------|------------0--0------------|


--4--5--5--5--5--7--5-4-5-4-5-4-5-|----------5---------5-3-1-3-0-----|
--0--------0--------0-------------|--------5---5-----0-----------2---|
-----5--5-----5--7----------------|------5-------5-----------------2-|
--3--------4----------------------|----7-----------7-----------------|
-----7--7--6--7-------------------|--0-------------------------------|
--------------------0-------------|----------------------------------|


--------0-1---------1-0---0-------|------------1---------------1-4-7-|
------3-----3-----------3---1-----|--------2-3-------------0-3-------|
----2---------3-2-1-----------2-0-|------2-------3-2-----1-----------|
----------------------------------|----3---------------0-------------|
--0-------------------------------|--0---------------2---------------|
----------------------------------|----------------------------------|


------------4----8-----------5-7-10-|----10-8-0---8-7-----6-5-----5-3---|
--------1-5---10---------3-6--------|-----------------------------------|
------2----------------2------------|-----------8-----7-6-----5-4-----3-|
----2--------------0-3--------------|-----------------------------------|
--3---------------------------------|--7--------------------------------|
------------------------------------|-----------------------------------|


----3-1-----1-0-----0-------------|--4----------------|
----------------------3-2-3-------|--3----------------|
--2-----2-1-----0-----------------|--4----------------|
------------------4---------3-2-0-|--2----------------|
----------------------------------|-------------------|
----------------------------------|--0----------------|


--4-5-7-4-5-7----------------------------------------5--|
--------------3-5-6-3-5-6-0-1-3-0-1-3-----0-----0----4--|
--------------------------------------1-2---1-2---------|
--------------------------------------------------2-----|
--------------------------------------------------------|
--------------------------------------------------------|


--5-7-5-4-5-2-4-5-4-5-4-5-4-5-4-5-5-------||
--5-------------------------------5-------||
--4-------------------------------5-------||
------------------------------------------||
----------------------------------0-------||
--0-------------0-------------------------||


si kieren mas klasikas o los midis
escribanme a rafael_blark@
Suggest correction
Give kudos to tab author, rate the tab!
1 2 3 4 5
comments
print report bad tab
guest
You may want to rate the tab now too:
select rating
Wanna post a correction for this tab? Suggest correction