Oops, an error
Loading. Please wait.

Bach - Ich Ruf` Zu Dir, Herr Jesus Crist Tab

version 2
version 2

Whole song

78 views 1 this week
no commentswrite comment
1 2 3 4 5
3 more votes to show rating
add to favorites
launch autoscroll
font size
0
reset
how to read this tab
guitar tuner
×
Best way to learn
"Bach - Ich Ruf` Zu Dir, Herr Jesus Crist"
Autoscroll
slow
fast
+/-
esc
set tempo
stop
 Tuning : E A D G B E        Key : Em         Time Signature: 4/4

 |       |       |       |        |       |       |       |
|7---0---3-------5-------3-----2-|0-----2-3-5-3-5-757575757-------|
|--0---4---0---------1-0-----0---|------0---4---------4---4-0-----|
|0-----------0-----2-------0---2-|0---0-------------------------2-|
|--------2---2-2-4---1---2---2---|2-2-0-----------------------4---|
|--------------------------------|--------3---3---3---3---2---2---|
|0---0---0---0---0-------0---0---|0-------------------------------|

 |       |       |       |        |       |       |       |
|7---0-8-10--3-2-8-7-0-5-3---0-3-|5---7---8-----0-5-10127-7-------|
|--0-----0---0---0---0---0-1-0---|------6-----1-------------0-4---|
|0---------7-------7-------------|2-5-4-------0-----------------2-|
|--------------------------------|----6---7-7-----4---------------|
|7---7-------2-----------2---2---|0-------0-----------7---6---2---|
|0---0---7-------7---7-----------|----4-------3---2---0-----------|

 |       |       |       |        |       |       |       |
|7---0---3-------5-------3-----2-|0-----2-3-5-3-5-75757-0-7-------|
|--0---4---0---------1-0-----0---|------0---4---------4---4-0-----|
|0-----------0-----2-------0---2-|0---0-------------------------2-|
|--------2---2-2-4---1---2---2---|2-2-0-----------------------4---|
|--------------------------------|--------3---3---3---3---2---2---|
|0---0---0---0---0-------0---0---|0-------------------------------|

 |       |       |       |        |       |       |       |
|7---0-8-10--3-2-8-7-0-5-3---0-3-|5---7---8-----0-5-10107-7-----0-|
|--0-----0---0---0---0---0-1-0---|------6-----1-------------------|
|0---------7-------7-------------|2-5-4-------0---------------0---|
|--------------------------------|----6---7-7-----4---------7-2---|
|7---7-------2-------2---2---2---|0-------0-----------7---6-------|
|0---0---7-------7---------------|----4-------3---2---0-------0---|

 |       |       |       |        |       |       |       |
|10------12------10--108-7---5-2-|3-0-5-2-7-----1-5-------3-------|
|------0---0---1-----------3-1---|0---------------------1-0---0-3-|
|----0---0---2-----------0-------|----------7-0-----0-------0-----|
|-10-------------710-0-------0---|2-------0-----------4-----------|
|9-----------3---5---------------|----3-------2---3---------------|
|7---7---8---------------3-------|0-----------------------3---3---|

 |       |       |       |        |       |       |       |
|7-----2-7---0-2-7-0---4-5-2-3-2-|3-0-2-0-2-0-2-0---------0---0---|
|--0-------0---------3-----------|0-------1-------4---1-0---0---4-|
|----2-------------------5-------|------------------2-----0-------|
|----1---6-----------2---2---1---|2-------------------------------|
|6---------------7---------------|----3---0-------2---2---3---3---|
|--------0---0---0---0---0-------|0-----------2-------------------|

 |       |       |       |        |       |       |       |
|0-------3-0-2-0-2-0-2-0-0-0-2-0-|--------------------------------|
|--0---------------------0-------|2-----2-3-0-3-1-----1-0-----0---|
|----0---2-------2---------------|----3-------------2-------0---2-|
|------2---------0---0-----------|--4-----4-------4-------0-------|
|3---3---4---4-------------------|1---1---2---2---0---0-----------|
|------------------------4---4---|------------------------3---3---|

 |       |       |       |        |       |       |       |
|--------3-------3-------5-------|5-------7-----3---5-7---4---1---|
|3-----1-----1-0-----0-----------|----1-0---0-3---3----10---3-----|
|--2-------0-------0---2---0-2-0-|--2-----0---------------------1-|
|----0---2-------2---0---2-------|4---0---------------------------|
|------------------------4---4---|--------------------8-----------|
|2---2---0---0-------------------|--------3---3---1-------0---0---|

 |       |       |       |        |       |       |       |
|8-----0-7---0---5-------3-------|0-0-2-2-3-0-2-0-2-------0---0--||
|--7-------4---3-----3-1---0-1-0-|--------2-------4---------0----||
|----0-------------5-------------|2-----------------5-2---1------||
|7-------4-------2-------0-------|----------------------4--------||
|0---0---0-----------------------|3---3---1---1---2---2----------||
|------------3---3---2---2---0---|------------------------0------||
Suggest correction
Give kudos to tab author, rate the tab!
1 2 3 4 5
comments
print report bad tab
guest
You may want to rate the tab now too:
select rating
Wanna post a correction for this tab? Suggest correction