Oops, an error
Loading. Please wait.

Bach - Sonata En Gm Tab

176 views 1 this week
no commentswrite comment
1 2 3 4 5
3 more votes to show rating
add to favorites
launch autoscroll
font size
0
reset
how to read this tab
guitar tuner
×
Best way to learn
"Bach - Sonata En Gm"
Autoscroll
slow
fast
+/-
esc
set tempo
stop
Hola otra vez, he estado mandando muchas tabs últimamente 
ya que estoy de vacaciones y pues nada mejor que dedicarle
un tiempo a lo que más me apasiona hacer. La música.

Dejemos los rollos atrás y comencemos.


-3-6-3---3---------------------------------------------    
-------3---3---3-------------------------------3-------    
-------------3---3---3-----------------------3---------    
-------------------5---3---5---------------5-----------    
-------------------------5---5---5-------5-------------
-------------------------------6---6-3-6---------------   


-3---------------------2-5---------------------3-------    
---3-----------------3-----4-3-1-------------3---------
-----5-3-2---------2-------------3-2-0---0-3-----------   
-----------5-4---4---------------------0---------------    
---------------5---------------------------------------
-------------------------------------------------------


-6------------5-----------3-------------3-2-3-5--------       
---8--------8---6-------6---4-------4-----------5------ 
-----8----8-------7---7-------5---5--------------------      
-------10-----------8-----------7----------------------    
--------------------------------------0----------------
------------------------------------------------------- 


---------------1-0-1-3-----------------------1---------     
---------3-----------------------------4-3-4-----------  
---5-3-5---------------3---3-2-3-5-------------1-------         
-5---------3-------------3---------1-------------------  
-------------3-----------------------1-----------------
-------------------------------------------------------  


----------------------------------------1---1----------  
-------------------4---4--------------3---3------------    
-------0---0-5---5---5----------2---2------------------     
-1---1---1-----5----------3---3---3--------------------   
---1------------------------3--------------------------  
-------------------------------------------------------  


-------------------3---3-------------------5---5-------    
-------------4---4---4---------------6---6---6---------    
-------3---3---3---------------5---5---5---------------    
-5---5---5---------------7---7---7---------------------    
---6-----------------------8---------------------------  
-------------------------------------------------------


-------6-5-6-------6-5-6-------6-5-6-------6-5-6-------            
-----3---------3-4---------4-6-------4-6-8-------------
-3-5---------5-----------7-----------------------------    
-------------------------------------------------------
-------------------------------------------------------
-------------------------------------------------------


-------------------------------------------------------
-----4-8-6-4-3---4---6---------------------------------       
---5-----------3---3-----0-2-3-----2-------------------       
-7---------------------6-------0-------0---------------    
---------------------------------3---1---3-1-0---------     
-----------------------------------------------3------- 


---------------------------6-5---------------5---------   
-------------------6-5---------8-6-5-6---8-------------       
-----------5-3-2-0-----7-6-------------7---7---5-------         
---5-4-2-0---------------------------------------------     
-0----------------------------------------------------- 
-------------------------------------------------------


---5-3----------------3-----3-1-----------0---1--------        
--------6-5-3-5---6-------------5-3-2-3----------------         
-3--------------5---5---3-2-------------3---3---2------        
-------------------------------------------------------
-------------------------------------------------------
-------------------------------------------------------


---1-0---------------0---------------------------------   
-------3-2-0-2---3---------3---------------------------       
-0-------------2---2---0-----3-0---5---3-------2-------          
-------------------------3---------------5-2-----------    
---------------------------------7---5-------3---------     
-------------------------------------------------------


-------------------------------------------------------
-------------------------------------------------------
---0-------------------------------------------0-------    
-----2-----3---3-2-0-4-----0---2-0-3---2-0-3-2---------              
-1-----4---------------2-----4-------0-----------------       
---------5---3-----------5-----------------------------     


------------------------------------------------0------ 
----------------------------------------------3-------- 
-------0----2---0---2-0-3---3-2-0-----------2----------          
---3-2---3--------4---------------3-2-3---3------------         
-0------------1-----------4-------------5--------------      
------------------------------------------------------- 


-5----------------------------------------------------- 
---3---2-3---------------------------------------------   
-----2------------------------------------------------- 
-------------------------------------------------------
-------------------------------------------------------
-------------------------------------------------------

Phew!!! Lento pero seguro. Al fin terminamos, ok ya saben,
si a alguien no le gustan las tabs que mando, por favor
diganme sugerencias. ¡¡¡See ya!!!
Suggest correction
Give kudos to tab author, rate the tab!
1 2 3 4 5
comments
print report bad tab
guest
You may want to rate the tab now too:
select rating
Wanna post a correction for this tab? Suggest correction