Oops, an error
Loading. Please wait.

Balada Para Adelina Tab

version 2
version 2

Whole song

236 views 1 this week
no commentswrite comment
1 2 3 4 5
2 more votes to show rating
add to favorites
launch autoscroll
font size
0
reset
how to read this tab
guitar tuner
×
Best way to learn
"Balada Para Adelina"
Autoscroll
slow
fast
+/-
esc
set tempo
stop
esta es mi trascripcion
tien unos arreglos para mejor interpretacion

Moderate = 70

compas de 4/4
  1                                    2
E|||----------------------------------|------0-------0-------0-------0---|
B|4|------1-3-----1-3-----1-3-----1-3-|----------------------------------|
G|/|----0-------0-------0-------0-----|----0---0---0---0---0---0---0---0-|
D|4|----------------------------------|----------------------------------|
A|||--3-------3-------3-------3-------|--3-------3-------3-------3-------|
E|||----------------------------------|----------------------------------|


3                          4
--0-----0-----------0----1-|--1--------------1-1-1-1-1-1-3-|
---------------------------|-----------------------------0-|
--0-----0-----------0----2-|--2--------------2-2-2-2-2-2---|
--------2-----2-----2------|--0-----3------3-------3-------|
--3------------------------|-----0------0------0-------0---|
-----3-----3-----3-----3---|-------------------------------|

5                          6
--3-----3-----------3----5-|--0-----------------------|
--0-----0-----------0------|--------------------------|
--------0-----0-----0----5-|--0-----------------------|
-----0-----0-----0-----0---|--------2-----2-----2-----|
---------------------------|--3-----------------------|
--3------------------------|-----3-----3-----3-----3--|


7                                8
|---0-----0--------0-0-0-0-0-0-1-|--1--------------1-1-1-1-1-1-3-|
|--------------------------------|-----------------------------0-|
|---0-----0--------0-0-0-0-0-0-2-|--2--------------2-2-2-2-2-2---|
|---------2------2-------2-------|--0-----3------3-------3-------|
|---3----------------------------|-----0------0------0-------0---|
|------3------3------3-------3---|-------------------------------|


9                           10
|--3-----------------3----5-|--0-----------------------|
|--0-----------------0------|--------------------------|
|--------0-----0-----0----5-|--0--------------0--------|
|-----0-----0-----0-----0---|--------2-----2-----------|
|---------------------------|--3-----------------3--2--|
|--3------------------------|-----3-----3--------------|


11
||----0-12-0-10-0--8-0-----7---5---3---|
||------13---12---10-----0-8-0-7-0-5-0-|
|*-------------------------------------|
|*-------------------------------------|
||--0--------0-------------------------|
||---------------------0---------------|


12
|--5-----3--1--0---------------|
|--6--1--5--3--1---3---1-------|
|--------4--0----0---------0---|
|--3-----------------2---2---2-|
|-----0--------3---------------|
|--------3---------------------|

13                                  14
|-------0----------------------------|-----------------------------|
|-------1---3---1--------0-----------|-----------------------------|
|-----------4---2--------0---2---0---|--2----0---0-----------------|
|-----2---2---2---2----------4---2---|--3------3-0--0----0-----0-3-|
|--0--------0----------2---2---2---2-|----3------------3-----3-----|
|-------------------0--------0-------|--1----3------3------3-------|

15
--------------------------------------1-3-----1-3---1-3-10---1-3-10-|
------------------------3-------3---3-------3-----3--------3--------|
--------0-------0-----0-------0---0-------0-------0-----------------|
----0-3-----0-3---0-3-----0-3---------------------------------------|
--------------------------------------------------------------------|
--3-------3-------3---------------3---------------------------------|

compas de 2/4
16
|||------1-3-----1-3-------3-------3-|
|2|----3-------3-------0-3-----0-3---|
|/|--0-------0-------0-------0-------|
|4|----------------------------------|
|||----------------------------------|
|||--3-------3-------3-------3-------|

compas de 4/4
17                            18
|||--0-----0-----------0----1-|--1-----1--------1-1-1-1-1-1-3-|
|4|---------------------------|-----------------------------0-|
|/|--0-----0-----------0----2-|--2-----2--------2-2-2-2-2-2---|
|4|--------2-----2-----2------|--0-----3------3-------3-------|
|||--3------------------------|-----0------0------0-------0---|
|||----3-----3-----3-----3----|-------------------------------|


19                         20
--3-----3-----------3----5-|--0----3--------1----------------|
--0-----0-----------0------|----------4-------1-----3--0-----|
--------0-----0-----0----5-|--0---------3-0-2---2--------0---|
-----0-----0-----0-----0---|-------1--------------3--------0-|
---------------------------|--3------------------------------|
--3------------------------|----------------1-------3--------|


21
--0-----0-----0-----0-0-0-0-0-0-0-1-|
------------------------------------|
--0-----0-----0-----0-0-0-0-0-0-0-2-|
--------2-----2-----2-------2-------|
--3---------------------------------|
-----3-----3-----3------3-------3---|

22                             23
--1-----1------1-1-1-1-1-1-1-3-|--3-----3-----------3----5-|
-----------------------------0-|--0-----0-----------0------|
--2-----2------2-2-2-2-2-2-2---|--------0-----0-----0----5-|
--0-----3------3-------3-------|-----0-----0-----0-----0---|
-----0------0------0-------0---|---------------------------|
-------------------------------|--3------------------------|


24                     25
|1:___________________||2:____________________________|
--0--------0-----0----||--0-----------1-------3-------|
-----3----------------||--------------------1-0---0-3-|
--0-----0-----0-------*|--0-----------2---2-----0-0---|
----------------------*|--------2-------3-3-----------|
--3--------------3--2-||--3---------------------------|
----------------------||-----3-----3--1-------3-------|

26                                  27
--0-----0-----0-----0-0-0-0-0-0-0-1-|--1-----1------1-1-1-1-1-1-1-3-|
------------------------------------|-----------------------------0-|
--0-----0-----0-----0-0-0-0-0-0-0-2-|--2-----2------2-2-2-2-2-2-2---|
--------2-----2-----2-------2-------|--0-----3------3-------3-------|
--3---------------------------------|-----0------0------0-------0---|
-----3-----3-----3------3-------3---|-------------------------------|

28                           29
|--3-----3-----------3----5-|--0-------------------3-----5-|
|--0-----0-----------0------|--------------1-------0-------|
|--------0-----0-----0----5-|--0-----------2-------------0-|
|-----0-----0-----0-----0---|--------2-----------3-----0---|
|---------------------------|--3-------------0-3-----2-----|
|--3------------------------|-----3-----3--1-------3-------|

30                             31  C
|--0-------------------3-----5-|---0----------------|
|--------------1-------0-------|---1----------------|
|--0-----------2-------------0-|---0----------------|
|--------2-----------3-----0---|---2----------------|
|--3-------------0-3-----2-----|---3----------------|
|-----3-----3--1-------3-------|---3----------------|
Suggest correction
Give kudos to tab author, rate the tab!
1 2 3 4 5
comments
print report bad tab
guest
You may want to rate the tab now too:
select rating
Wanna post a correction for this tab? Suggest correction