Oops, an error
Loading. Please wait.

Balada Para Adelina Tab

version 3
version 3

Whole song

268 views 1 this week
no commentswrite comment
1 2 3 4 5
3 more votes to show rating
add to favorites
launch autoscroll
font size
0
reset
how to read this tab
guitar tuner
×
Best way to learn
"Balada Para Adelina"
Autoscroll
slow
fast
+/-
esc
set tempo
stop
Hola aqui he modificado la tablatura espero que le sirvan.
Deben de recordar que balada para adelina es un vals y
para que se escuche bien tienes que darle el timpo correcto
cualquier duda o comentarios elvielos a pablo_hdz_@
(pueden descargar la partutura o manderme un mail)

(manden sus comentarios sobre la partitura
y asi poder hacer modificaciones, o si tiene errores)

Moderate = 70

Inicio es de 4/4

    C
E||----------------------------------|------0-------0-------0-------0---|
B||--------3-------3-------3-------3-|----------------------------------|
G||------5-------5-------5-------5---|----0---0---0---0---0---0---0---0-|
D||----5-------5-------5-------5-----|----------------------------------|
A||--3-------3-------3-------3-------|--3-------3-------3-------3-------|
E||----------------------------------|----------------------------------|


  C                           Dm
--0-----0-----------0----1-|--1-----1h-----1-1-1-1-1-1-1-3-|
---------------------------|-----------------------------0-|
--0-----0-----------0----2-|--2-----2------L-2-2-2-2-2-2---|
--------2-----2-----2------|--------3------3-------3-------|
---------------------------|-----0------0------0-------0---|
-----3-----3-----3-----3---|-------------------------------|

  G7                          C
--3-----3-----------3----5-|--0-----------------------|
--0-----0-----------0------|--------------------------|
--0--0-----0-----0-------5-|--0-----------------------|
---------------------------|--------2-----2-----2-----|
--------------2------------|--------------------------|
--3-----3-----------3------|-----3-----3-----3-----3--|


    C                               Dm
|---0-----0------L-0-0-0-0-0-0-1-|--1-----1------L-1-1-1-1-1-1-3-|
|--------------------------------|-----------------------------0-|
|*--0-----0h-----0-0-0-0-0-0-0-2-|--2-----2h-----2-2-2-2-2-2-2---|
|*--------2------2-------2-------|--------3------3-------3-------|
|--------------------------------|-----0------0------0-------0---|
|------3------3------3-------3---|-------------------------------|


  G7
--3-----3-----------3----5-|--0-----------------------|
--0-----0-----------0------|--------------------------|
--0--0-----0-----0-------5-|--0--------------0--------|
-----------------------0---|--------2-----2-----------|
--------2-----2-----2------|--3-----------------3--2--|
--3-----3-----------3------|-----3-----3--------------|


----0-12-0-10-0--8-----0-7---5---0---|
------13---12---10-------8-0-7-0-8-0-|
-------------------9---------0-------|
----2------10----------9-------------|
--0------------------7---------------|
---------0----0------------7---7-----|


  F       G7       C
--5-------3----1---0----------------------|
--6----------0---0-------1-------1--------|
----------0----0-------0-------0----------|
--3---3--------3-----2-------0------------|
----3---3-2----0---3-------2-------3-2-0--|
------------------------------------------|

   Am               Em
|-------0----------------------------|
|-------1---3---1--------0-----------|
|-----------4---2--------0---2---0---|
|-----2---2---2---2----------4---2---|
|--0--------3----------2---2---2-2-2-|
|-------0-------0---0--------3-------|

  F              G7                aqui es de 2/4
----------------------------------|----------------------------------|
----------------------------------|------------------------3-------3-|
--2------0----0h-0--------------0-|--------0-------0-----0-------0---|
------------3-----------3-----3---|------3-------3-----3-------3-----|
--3-------------------5-----5-----|----5-------5-----5-------5-------|
-----1h--1----------3-----3-------|--3-------3-----------------------|


y aqui vuelve a 4/4
--------3-------3---------10---------10-
------6-------6---------8----------8----
----7-------7--------10---------10------
--5-------5-------12---------12---------
----------------------------------------
----------------------------------------


8va----------------------------------------------|

----------15----------15-------22-27-------22-27-
-------18----------18-------24----------24-------
----19----------19-------24----------24----------
-17----------17----------------------------------
-------------------------------------------------
-------------------------------------------------


  C                           Dm
--0-----0-----------0----1-|--1-----1h-----1-1-1-1-1-1-1-3-|
---------------------------|-----------------------------0-|
--0-----0-----------0----2-|--2-----2------L-2-2-2-2-2-2---|
--------2-----2-----2------|--------3------3-------3-------|
---------------------------|-----0------0------0-------0---|
-----3-----3-----3-----3---|-------------------------------|

                            -------------------------------|
                           |  1era Repetición

  G7                          C    Eb       F       G7
--3-----3-----------3----5-|--0----3--0-----1-----------------||
--0-----0-----------0----1-|-------0----0-----1-----3--0------||
-----0-----0-----0---------|--0-----------0-2---2---0----0---*||
-----------------0---------|-------2--------3-----3--------0-*||
--------2-----2------------|--3-------------------------------||
--3-----3-----------3--3---|------------------------3---------||


 ---------------------------|
|  2da Repetición
  C           F       G7            C
--0-----------1-----1-3------5-||---0-----0-----------0----1-|
------------------1--------3---||----------------------------|
--0--------2----2-----0--4-----||*--0-----0-----------0----2-|
--------3-----3----------------||*--------2-----2-----2------|
-----3-------------------------||----------------------------|
-------------------------------||------3-----3-----3-----3---|

  Dm                              G7
--1-----1h-----1-1-1-1-1-1-1-3-|--3-----3-----------3----5-|
-----------------------------0-|--0-----0-----------0----1-|
--2-----2------L-2-2-2-2-2-2---|-----0-----0-----0---------|
--------3------3-------3-------|-----------------0---------|
-----0------0------0-------0---|--------2-----2------------|
-------------------------------|--3-----3-----------3--3---|


  C           F       G7            C           F       G7
--0-----------1-----1-3------5--||--0-----------1-----1-3------5-|
------------------1--------3----||------------------1--------3---|
--0--------2----2-----0--4-----*||--0--------2----2-----0--4-----|
--------3-----3----------------*||--------3-----3----------------|
-----3--------------------------||-----3-------------------------|
--------------------------------||-------------------------------|


 fine
  C
  W
--0----------------||
--1----------------||
--0----------------||
--2----------------||
--3----------------||
--3----------------||


Leyenda de Tablatura
----------------

h - hammer on
Suggest correction
Give kudos to tab author, rate the tab!
1 2 3 4 5
comments
print report bad tab
guest
You may want to rate the tab now too:
select rating
Wanna post a correction for this tab? Suggest correction