Oops, an error
Loading. Please wait.

Balada Para Elisa Tab

1,924 views 63 this week
no commentswrite comment
1 2 3 4 5
3 more votes to show rating
add to favorites
launch autoscroll
font size
0
reset
how to read this tab
guitar tuner
×
Best way to learn
"Balada Para Elisa"
Autoscroll
slow
fast
+/-
esc
set tempo
stop
Recomiendo que en los bajos dejen puestos los dedos 
se oye mucho mejor


1°|-0---0---0-----------------0---------0---------0-|
2°|---4---4---0--3--1-------1---0-----0---1-----1---|
3°|-------------------2---2---------1---------2-----|
4°|---------------------2---------2---------2-------|
5°|-------------------0-------------------0---------|
6°|-----------------------------0-------------------|

en la siguiente parte va seguido para se 
oiga bien la continuidad

|-----0---0-----------------0-----------------------|
|---4---4---0--3--1-------1---0-------1--0----------|
|-------------------2---2---------1---------2-------|
|---------------------2---------2---2---------------|
|-------------------0-----------------------0-------|
|-----------------------------0---------------------|


|---------0-------1--0--------------0----------------|
|-0--1--3-----1---------3--------------3--1----------|
|-----------0---0-------------0-----------------2----|
|--------------------------0-----0-----------2-----2-|
|---------3-------------------------------0----------|
|-----------------------3----------------------------|


|-------------------||
|-3--1--0-----------||
|-------------1-----||
|----------2-----2--||
|-------------------||
|-------0-----------||


la repites cuantas veces quieras, y a la velocidad que quieras
espero que sea de tu agrado
Suggest correction
Give kudos to tab author, rate the tab!
1 2 3 4 5
comments
print report bad tab
guest
You may want to rate the tab now too:
select rating
Wanna post a correction for this tab? Suggest correction