Oops, an error
Loading. Please wait.

Beethoven - Classical Guitar Tab

4,614 views 36 this week
no commentswrite comment
1 2 3 4 5
x 17
add to favorites
launch autoscroll
font size
0
reset
how to read this tab
guitar tuner
Autoscroll
slow
fast
+/-
esc
set tempo
stop
Help us to improve Ultimate-Guitar.com Take our survey!
×
esta es una rola de luwing van beethoven.
y esta trascripcion como todas, se la kiero dedicar a
una amiga muy guapa ke se llama diana esparsa zepeda
                 ´´diana te amo´´

1----------0------------------------------------------
2--5-4-5-4---0-3-1----------------0-------------------
3------------------2------------2------------1-4-5----
4-----------------------------2------------2----------2
5-------------------------0-3------------------------0-
6-----------------------0------------- 0-4----------0--


1----------0------------------------------------------
2--5-4-5-4---0-3-1--------------0----------1-0--------
3------------------2----------2----------------2-------
4---------------------------2------------2-------------
5-----------------------0-3--------------------------0-
6---------------------0--------------0-4-----------0---


1----------0-----------------------------------------
--5-4-5-4---0-3-1---------------0----------0-1-------
3------------------2-----------2----------1---------
4--------------------------2-2----------2-----------2-
5------------------------0------------------------0---
6----------------------0------------0-4---------0-----

1----------0--------------------------------------
2--5-4-5-4---0-3-1--------------0---------1-0---------
3------------------2----------2---------------2------
4---------------------------2-----------2-----------
5-----------------------0-3-------------------------
6---------------------0-------------0-4------------

1--------------0----------1-0-----------0-----------
2--------0-1-3----------------3-----------3-1--------
3----------------------0----------------------------
4--------------------------------------3-------------
5----0---------------3---------------2--------------
6--0---------------3---------------3----------------
-                                      se repite todo
1---------------------------0-----0----/----------
2---------3-1-0------------------------/--5-4-5-4 etc
3--------------------------------------/----------
4------2-------------2-2-------2-----2-/----------
5----0---------------------------------/------
6--0---------------0-------------------/------

  bueno espero ke la puedan tocar esta es la original 
no  no chingaderas y esta en  Am   y como les dije  si 
kieren mas de diblaso pidanmelas a mi correo.  
                feliz navidad
Suggest correction
comments
print report bad tab
guest
You may want to rate the tab now too:
select rating
Wanna post a correction for this tab? Suggest correction