Oops, an error
Loading. Please wait.

Beethoven - Classical Guitar Tab

5,745 views 24 this week
no commentswrite comment
1 2 3 4 5
x 21
add to favorites
×
Save as Personal and add changes to this tab that will be seen only by you. Learn more ›
×
You can save this tab as Personal to edit and correct it or add notes. All changes will be seen only by you. Learn more »
save as personal
new!
launch autoscroll
font size
0
reset
how to read this tab
guitar tuner
Autoscroll
slow
fast
+/-
esc
set tempo
stop
[Intro]
e|----------0--------------------------------------------|
B|--5-4-5-4---0-3-1----------------0---------------------|
G|------------------2------------2------------1-4-5------|
D|-----------------------------2------------2----------2-|
A|-------------------------0-3------------------------0--|
E|-----------------------0------------- 0-4----------0---|

e|----------0--------------------------------------------|
B|--5-4-5-4---0-3-1--------------0----------1-0----------|
G|------------------2----------2----------------2--------|
D|---------------------------2------------2--------------|
A|-----------------------0-3--------------------------0--|
E|---------------------0--------------0-4-----------0----|

e|----------0-------------------------------------------|
B|-5-4-5-4---0-3-1---------------0----------0-1---------|
G|------------------2-----------2----------1------------|
D|--------------------------2-2----------2-----------2--|
A|------------------------0------------------------0----|
E|----------------------0------------0-4---------0------|

e|----------0-------------------------------------------|
B|--5-4-5-4---0-3-1--------------0---------1-0----------|
G|------------------2----------2---------------2--------|
D|---------------------------2-----------2--------------|
A|-----------------------0-3----------------------------|
E|---------------------0-------------0-4----------------|

e|--------------0----------1-0-----------0-------------|
B|--------0-1-3----------------3-----------3-1---------|
G|----------------------0------------------------------|
D|--------------------------------------3--------------|
A|----0---------------3---------------2----------------|
E|--0---------------3---------------3------------------|

 -                                      se repite todo
e|---------------------------0-----0----/-----------|
B|---------3-1-0------------------------/--5-4-5-4--|(etc)
G|--------------------------------------/-----------|
D|------2-------------2-2-------2-----2-/-----------|
A|----0---------------------------------/-----------|
E|--0---------------0-------------------/-----------|

************************************

| /  Slide up
    
************************************
Suggest correction
comments
print report bad tab
guest
Wanna post a correction for this tab? Suggest correction