Oops, an error
Loading. Please wait.

Beethoven - Himno A La Alegría Tab

version 3
version 3

Whole song

140 views 1 this week
no commentswrite comment
1 2 3 4 5
3 more votes to show rating
add to favorites
×
Save as Personal and add changes to this tab that will be seen only by you. Learn more ›
×
You can save this tab as Personal to edit and correct it or add notes. All changes will be seen only by you. Learn more »
save as personal
new!
launch autoscroll
font size
0
reset
how to read this tab
guitar tuner
Autoscroll
slow
fast
+/-
esc
set tempo
stop
Bueno aqui les dejo mi versión de la novena sinfonía
basada en algunos tabs anteriores pero agregué unos
bajos... para comentarios mi mail:
brayuco03@

() = se tocan juntas

||-(0)-0--1--3-|-(3)-1--0----|-----------0-|------------||
||-------------|-----------3-|-(1)-1--3----|-(3)---(1)--||
||-------------|-------------|-------------|------------||
||-------------|-------------|-------------|------------||
||-(3)---------|-(2)---------|-(0)---------|-------(0)--||
||-------------|-------------|-------------|-(3)--------||


||-(0)-0--1--3-|-(3)-1--0----|-----------0-|------------||
||-------------|-----------3-|-(1)-1--3----|-(3)---(1)-1||
||-------------|-------------|-------------|------------||
||-------------|-------------|-------------|------------||
||-(3)---------|-(2)---------|-(0)---------|-------(0)--||
||-------------|-------------|-------------|-(3)--------||


||-----0?-------|-0-1--0------|-0-1?0------|------------||
||-(3)----1--(3)|--------1-(3)|---------3--|1?3---------||
||--------------|-------------|------------|---------0--||
||--------------|-------------|------------|------------||
||-(2)-------(3)|----------(2)|------------|------------||
||--------------|-------------|------------|------------||


||-(0)-0--1--3-|-(3)-1--0----|-----------0-|------------||
||-------------|-----------3-|-(1)-1--3----|-(3)---(1)--||
||-------------|-------------|-------------|------------||
||-------------|-------------|-------------|------------||
||-(3)---------|-(2)---------|-(0)---------|------(0)---||
||-------------|-------------|-------------|-(3)--------||
Suggest correction
Give kudos to tab author, rate the tab!
1 2 3 4 5
comments
print report bad tab
guest
Wanna post a correction for this tab? Suggest correction