Oops, an error
Loading. Please wait.

Beethoven - Para Elisa Tab

version 3
version 3

Whole song

266 views 3 this week
no commentswrite comment
1 2 3 4 5
3 more votes to show rating
add to favorites
launch autoscroll
font size
0
reset
how to read this tab
guitar tuner
Autoscroll
slow
fast
+/-
esc
set tempo
stop
LAS PARTES DE LAS CUERDAS 6  5  Y  4 SON EL ACOMPAÑAMIENTO

E--12--11-12-11-12--7-10-8-5---------5--7-------4-7-8-|---|
B----------------------------------5----------5-------|-5-|
G--------------------------------5--------------------|---|
D------------------------------7------------6---------|---|
A----------------------------7------------7-----------|---|
E--------------------------5------------0-------------|---|


E-12-11-12-11-12--7-10-8-5---------5--7-------8-7-5-----|
B--------------------------------5----------5-----------|
G------------------------------5------------------------|
D----------------------------7------------6-----------7-|
A--------------------------7------------7-----------7---|
E------------------------5------------0-----------5-----|

E-12-11-12-11-12--7-10-8-5---------5--7-------4-7-8-|---|
B--------------------------------5----------5-------|-5-|
G------------------------------5--------------------|---|
D----------------------------7------------6---------|---|
A--------------------------7------------7-----------|---|
E------------------------5------------0-------------|---|


E-12-11-12-11-12--7-10-8-5---------5--7-------8-7-5-----|
B--------------------------------5----------5-----------|
G------------------------------5------------------------|
D----------------------------7------------6-----------7-|
A--------------------------7------------7-----------7---|
E------------------------5------------0-----------5-----|


E-7-8-10-12-------|---13-12-10----|---12-10-8-----|
B-----------------|-8-------------|-6-------------|
G-----------------|---------------|---------------|
D--------------10-|-------------9-|-------------7-|
A-----------10----|-----------10--|-----------7---|
E---------8-------|---------------|---------5-----|


E---10-8-7------0-0-12-0-12-12-24-|
B-5-------------------------------|
G---------------------------------|
D------------6--------------------|
A----------7----------------------|
E--------0------------------------|


E-11-12-11-12-11-12-11-12-11-12-11-12-|
B-------------------------------------|
G-------------------------------------|
D-------------------------------------|
A-------------------------------------|
E-------------------------------------|


E-7-10-8-5---------5-7--------4-7-8-----|---|
B----------------5----------5-----------|-5-|
G--------------5------------------------|---|
D------------7-----------6------------7-|---|
A----------7-----------7------------7---|---|
E--------5-----------0------------5-----|---|


E-12-11-12-11-12--7-10-8-5---------5--7-------8-7-5-----|
B--------------------------------5----------5-----------|
G------------------------------5------------------------|
D----------------------------7------------6-----------7-|
A--------------------------7------------7-----------7---|
E------------------------5------------0-----------5-----|


E-7-8-10-12-------|---13-12-10----|---12-10-8-----|
B-----------------|-8-------------|-6-------------|
G-----------------|---------------|---------------|
D--------------10-|-------------9-|-------------7-|
A-----------10----|-----------10--|-----------7---|
E---------8-------|---------------|---------5-----|


E---10-8-7------0-0-12-0-12-12-24-|
B-5-------------------------------|
G---------------------------------|
D------------6--------------------|
A----------7----------------------|
E--------0------------------------|


E-11-12-11-12-11-12-11-12-11-12-11-12-|
B-------------------------------------|
G-------------------------------------|
D-------------------------------------|
A-------------------------------------|
E-------------------------------------|


E-7-10-8-5---------5-7--------4-7-8-----|---|
B----------------5----------5-----------|-5-|
G--------------5------------------------|---|
D------------7-----------6------------7-|---|
A----------7-----------7------------7---|---|
E--------5-----------0------------5-----|---|


E-12-11-12-11-12--7-10-8-5---------5--7-------8-7-5-----|
B--------------------------------5----------5-----------|
G------------------------------5------------------------|
D----------------------------7------------6-----------7-|
A--------------------------7------------7-----------7---|
E------------------------5------------0-----------5-----|

Aquí A UNA PARTE QUE NORMALMENTE NO LA PONEN PARA GUITARRA
E---------0---------8---13--12-12--10-|-18--17-17--15-|
B-13--13--13-----10-------------------|---------------|
G-9---10--12--10----------------------|---------------|
D-------------------------------------|---------------|
A-------------------------------------|---------------|
E-------------------------------------|---------------|


E-13-12-10-8-6-5---6-5-3-5-6-8-|
B------------------------------|
G------------------------------|
D------------------------------|
A------------------------------|
E------------------------------|

E--10-11-12---12-13---5-8---10--7-8-|
B-----------------------------------|
G-----------------------------------|
D-----------------------------------|
A-----------------------------------|
E-----------------------------------|

ESTA PARTE ES RAPIDA

E-15--15--15--15--15--12--15---20-19-17-15-13-12-10-|
B-----------12--13--15------------------------------|
G---12--14------------------------------------------|
D---------------------------------------------------|
A---------------------------------------------------|
E---------------------------------------------------|


E-15-13-10-8-|
B------------|
G------------|
D------------|
A------------|
E------------|


E-15--15--15--15--15--12--15---20-19-17-15-13-12-10-|
B-----------12--13--15------------------------------|
G---12--14------------------------------------------|
D---------------------------------------------------|
A---------------------------------------------------|
E---------------------------------------------------|


E-15-13-10-12-13-12-11-12---|-12-11-12--12-11-12--12-11-12--|
B------------------------12-|---------12--------12--------12|
G---------------------------|-------------------------------|
D---------------------------|-------------------------------|
A---------------------------|-------------------------------|
E---------------------------|-------------------------------|


E-12-11-12---|----12--11--12-----|
B---------12-|----------------12-|
G------------|-------------------|
D------------|-------------------|
A------------|-------------------|
E------------|-------------------|
VUELVE A VELOCIDAD NORMAL

E-12-11-12-11-12-11-12-11-12-11-12-11-12-|
B----------------------------------------|
G----------------------------------------|
D----------------------------------------|
A----------------------------------------|
E----------------------------------------|


E-7-10-8-5---------5-7--------4-7-8-----|---|
B----------------5----------5-----------|-5-|
G--------------5------------------------|---|
D------------7-----------6------------7-|---|
A----------7-----------7------------7---|---|
E--------5-----------0------------5-----|---|


E-12-11-12-11-12--7-10-8-5---------5--7-------8-7-5-----|
B--------------------------------5----------5-----------|
G------------------------------5------------------------|
D----------------------------7------------6-----------7-|
A--------------------------7------------7-----------7---|
E------------------------5------------0-----------5-----|


E-7-8-10-12-------|---13-12-10----|---12-10-8-----|
B-----------------|-8-------------|-6-------------|
G-----------------|---------------|---------------|
D--------------10-|-------------9-|-------------7-|
A-----------10----|-----------10--|-----------7---|
E---------8-------|---------------|---------5-----|


E---10-8-7------0-0-12-0-12-12-24-|
B-5-------------------------------|
G---------------------------------|
D------------6--------------------|
A----------7----------------------|
E--------0------------------------|


E-11-12-11-12-11-12-11-12-11-12-11-12-|
B-------------------------------------|
G-------------------------------------|
D-------------------------------------|
A-------------------------------------|
E-------------------------------------|


E-7-10-8-5---------5-7--------4-7-8-----|---|
B----------------5----------5-----------|-5-|
G--------------5------------------------|---|
D------------7-----------6------------7-|---|
A----------7-----------7------------7---|---|
E--------5-----------0------------5-----|---|


E-12-11-12-11-12--7-10-8-5---------5--7-------8---7---5-----|
B--------------------------------5----------5---------------|
G------------------------------5----------------------------|
D----------------------------7------------6-----------------|
A--------------------------7------------7-------------------|
E------------------------5------------0---------------5-----|


ESTA PARTE EL DIFÍCIL PERO CON PRACTICA SI SE PUEDE

E-------------0-----------10---------12-13---13-------13-|
B-------------11----------10---------14-15---15-------15-|
G-------------12----------10-----------------13-------13-|
D--------------------------------------------------------|
A--------------------------------------------------------|
E--------------------------------------------------------|


E-------12-----------10------8-7-5-------5---5---8---7---5-|
B-------13-----------------------7-------------------------|
G-------14-----------10------9-7-5-------5---5---9---7---5-|
D----------------------------------------------------------|
A----------------------------------------------------------|
E----------------------------------------------------------|


E-----------0------------10---------12-13-13------13---13-|
B-----------11-----------10---------14-15-15------15---15-|
G-----------12-----------10-------------------------------|
D---------------------------------------------------------|
A---------------------------------------------------------|
E---------------------------------------------------------|


E-11-----10-8-6-5-4--4--8----7--|
B-------------6-6-6--3--5----5--|
G-12-----10-8-7-7-7-----5-------|
D----------------------------6--|
A----------------------------7--|
E-------------------------------|

EN ESTA ARTE ES MAS AGUDO
PERO LA GUITARRA NO ALCANZA ESE TIPO DE AGUDES COMO EL PIANO
ASI QUE SE LOS PONDRE MAS GRAVE

E-----------0-----------0-5-7-12-10-8-7-5-8-12-17-20-24-|
B---------1---3-1-0---1---------------------------------|
G-------2-----------2-----------------------------------|
D-----2-------------------------------------------------|
A-0-3---------------------------------------------------|
E-------------------------------------------------------|

E-22-20-19-18-17-16-15-14-13-|
B----------------------------|
G----------------------------|
D----------------------------|
A----------------------------|
E----------------------------|
ESTO YA EL NORMAL

E-12-11-12--7-10-8-5---------5--7-------4-7-8-|---|
B--------------------------5----------5-------|-5-|
G------------------------5--------------------|---|
D----------------------7------------6---------|---|
A--------------------7------------7-----------|---|
E------------------5------------0-------------|---|


E-12-11-12-11-12--7-10-8-5---------5--7-------8-7-5-----|
B--------------------------------5----------5-----------|
G------------------------------5------------------------|
D----------------------------7------------6-----------7-|
A--------------------------7------------7-----------7---|
E------------------------5------------0-----------5-----|


E-7-8-10-12-------|---13-12-10----|---12-10-8-----|
B-----------------|-8-------------|-6-------------|
G-----------------|---------------|---------------|
D--------------10-|-------------9-|-------------7-|
A-----------10----|-----------10--|-----------7---|
E---------8-------|---------------|---------5-----|


E---10-8-7------0-0-12-0-12-12-24-|
B-5-------------------------------|
G---------------------------------|
D------------6--------------------|
A----------7----------------------|
E--------0------------------------|


E-11-12-11-12-11-12-11-12-11-12-11-12-|
B-------------------------------------|
G-------------------------------------|
D-------------------------------------|
A-------------------------------------|
E-------------------------------------|


E-7-10-8-5---------5-7--------4-7-8-----|---|
B----------------5----------5-----------|-5-|
G--------------5------------------------|---|
D------------7-----------6------------7-|---|
A----------7-----------7------------7---|---|
E--------5-----------0------------5-----|---|


E-12-11-12-11-12--7-10-8-5---------5--7-------8-7-5-----|
B--------------------------------5----------5-----------|
G------------------------------5------------------------|
D----------------------------7------------6-----------7-|
A--------------------------7------------7-----------7---|
E------------------------5------------0-----------5-----|


E-7-8-10-12-------|---13-12-10----|---12-10-8-----|
B-----------------|-8-------------|-6-------------|
G-----------------|---------------|---------------|
D--------------10-|-------------9-|-------------7-|
A-----------10----|-----------10--|-----------7---|
E---------8-------|---------------|---------5-----|


E---10-8-7------0-0-12-0-12-12-24-|
B-5-------------------------------|
G---------------------------------|
D------------6--------------------|
A----------7----------------------|
E--------0------------------------|


E-11-12-11-12-11-12-11-12-11-12-11-12-|
B-------------------------------------|
G-------------------------------------|
D-------------------------------------|
A-------------------------------------|
E-------------------------------------|


E-7-10-8-5---------5-7--------4-7-8-----|---|
B----------------5----------5-----------|-5-|
G--------------5------------------------|---|
D------------7-----------6------------7-|---|
A----------7-----------7------------7---|---|
E--------5-----------0------------5-----|---|


E-12-11-12-11-12--7-10-8-5---------5--7-------8---7---5-|
B--------------------------------5----------5-----------|
G------------------------------5------------------------|
D----------------------------7------------6-------------|
A--------------------------7------------7---------------|
E------------------------5------------0---------------5-|

ESTO ES TODO

CUALQUIER DUDA, CORRECCION
COMENTARIO
ETC

A MI CORREO
Suggest correction
Give kudos to tab author, rate the tab!
1 2 3 4 5
comments
print report bad tab
guest
You may want to rate the tab now too:
select rating
Wanna post a correction for this tab? Suggest correction