Oops, an error
Loading. Please wait.

Beethoven - Romance (Opus50) Tab

292 views 1 this week
no commentswrite comment
1 2 3 4 5
3 more votes to show rating
add to favorites
launch autoscroll
font size
0
reset
how to read this tab
guitar tuner
Autoscroll
slow
fast
+/-
esc
set tempo
stop
Help us to improve Ultimate-Guitar.com Take our survey!
×
1)---------------------5-----6-----
2)---6^^^^^-(8^6^5^6)-----8-----8--
3)---------------------------------
4)---------------------------------
5)---------------------------------
6)---------------------------------

1)---------------------------------
2)---6^^^^^(6)-5-8^5---------------
3)--------------------5---------5--
4)---------------------------------
5)---------------------------------
6)---------------------------------

1)----------------------------------------
2)---------------------------3--3---------
3)-----2----2----------------3--3---------
4)-----3----3--------------3---3--3---3---
5)---3----3----3-----3--1-----------1-----
6)-1--------------1-----------------------

1)----------------------------------------
2)------------------------3----3----------
3)------2---2-------------3----3----------
4)------3---3-----------3----3----3---3---
5)----3---3----3---3--1-------------1-----
6)--1------------1------------------------

1)-----------------------8^6/5-6-10-------
2)--6---10^8/7--8--9--10------------------
3)----------------------------------------
4)----------------------------------------
5)----------------------------------------
6)----------------------------------------

1)----------------7-8---------------------
2)--10^^^^(10)-11-----8-------------------
3)--------------------------5-------------
4)----------------------------------------
5)----------------------------------------
6)----------------------------------------

1)----------------------------------------
2)--------------3---------------3---------
3)-----2--------3-------2-------3---------
4)-----3------3---3-----3-----3----3------
5)---3----3-1---------3---3-1-------------
6)-1----------------1---------------------

1)----------------------------------------
2)------------------------1----1----------
3)------2---2-------------0----0----------
4)------3---3-----------2----2----2---2---
5)----3---3----3---3--3-------------3-----
6)--1------------1------------------------


1)--6-----3(5)^^2^3^0---------------
2)----------------------6--5--6-----
3)----------------------------------
4)----------------------------------
5)----------------------------------
6)----------------------------------

1)--6----3(5)^^2^3^0-----8---7---8--
2)----------------------------------
3)----------------------------------
4)----------------------------------
5)----------------------------------
6)----------------------------------

1)--------------------------------------
2)------1----1---1-------1----1---1-----
3)------3----3---3-------2----2---2-----
4)----2----2----2--2---2----3----3--3---
5)--3----------------3------------------
6)--------------------------------------

1)--------------------------------------
2)------1--1--1--------1----1---1-------
3)------3--3--3--------2----2---2-------
4)----2---2--2---2---2----3----3---3----
5)--3--------------3--------------------
6)--------------------------------------

1)--10^^^^(10)-10-12/13-----------------
2)-/----------------------------10\8----
3)-----------------------10-------------
4)--------------------------------------
5)--------------------------------------
6)--------------------------------------

1)----------8---------------------------
2)--8-----------5----6------------------
3)--------------------------------------
4)--------------------------------------
5)--------------------------------------
6)--------------------------------------

1)--------------------------------------
2)-----3---3----------------------------
3)-----3---3-----------2----2-----------
4)---3---3---3---3-----3----3-----------
5)--1----------1-----3---3--------3-----
6)------------------1----------1--------

1)--------------------------------------
2)------1----1--------------------------
3)------0----0------------2----2--------
4)----2----2----2---2-----3----3--------
5)--3-------------3-----3----3----------
6)--------------------1-----------------

Para sacar este tab, escuchen la canción original
cualquier comentario o sugerencia, ya saben a mi mail.

Dedicado a con mucho cariño a Lorena L.
             ¡To be with you!
Suggest correction
Give kudos to tab author, rate the tab!
1 2 3 4 5
comments
print report bad tab
guest
You may want to rate the tab now too:
select rating
Wanna post a correction for this tab? Suggest correction