Oops, an error
Loading. Please wait.

Beth Tab

70 views 1 this week
no commentswrite comment
1 2 3 4 5
3 more votes to show rating
add to favorites
launch autoscroll
font size
0
reset
how to read this tab
guitar tuner
×
Best way to learn
"Beth"
Autoscroll
slow
fast
+/-
esc
set tempo
stop
Legend
------

 h  = hammer-on
 p  = pull-off
 b  = bend
 r  = bend release
 /  = slide up/down
<5> = natural harmonic
[5] = artifical harmonic
 ~  = vibrato
 tr = trill

Beth - Peter Criss

Tabbed by Greg Motlasz <rd2ruin@ Comments and corrections are welcome

It was late, it's short.  It's also from memory, so let me know if 
something is grossly off.


E|-----------------------|--------0--0--------------------------------|-----
B|-----------0--1--3-----|--1--3--------3--1--------1--------1--------|--1--
G|--0--0--2-----------0--|--------------------2--------2--------2-----|-----
D|--2--------------------|--------------2--------2-----------------2--|-----
A|--3-----------2--------|--------3--------3--0-----------------------|-----
E|-----------------------|--------------------------------3-----------|--1--


E|--------------------0--|--------0--0--------------------|----------------
B|--0-----0--------------|--1--3--------3--1----5----3----|--1--1-----1----
G|-----2-----2--0--0-----|----------------------4----4----|--------2-------
D|-----------------------|---------------------------2----|--------2-------
A|-----------3--2--------|--------3-----2--0--------------|--0-------------
E|-----------------3-----|--3-------------------0---------|----------------


E|--------------------|---------------------------|-----------------------
B|--0--------------1--|--------1--1--3----1--0----|-----1--1-----1--0-----
G|-----2--0-----0-----|--0--2--2-----0-------0----|--0--------2-----0--0--
D|--------0--0--------|----------------------2----|-----0-----0-----2--0--
A|--2-----------------|--------3-----2------------|-----------------------
E|--------3-----------|---------------------------|-----------------------


E|----|------------------------------|---------------------|--
B|----|-----------1------------1--0--|--1--1-----1--1------|--
G|----|--0--2--2-----0--2------2--0--|--2-----2-----0------|--
D|----|-----------------2------2--0--|--------3------------|--
A|----|-----0--------2---------------|--3-----------3------|--
E|----|------------------------------|---------------------|--
Suggest correction
Give kudos to tab author, rate the tab!
1 2 3 4 5
comments
print report bad tab
guest
You may want to rate the tab now too:
select rating
Wanna post a correction for this tab? Suggest correction