Oops, an error
Loading. Please wait.

Bianco Fiore Tab

584 views 3 this week
no commentswrite comment
1 2 3 4 5
2 more votes to show rating
add to favorites
×
Save as Personal and add changes to this tab that will be seen only by you. Learn more ›
×
You can save this tab as Personal to edit and correct it or add notes. All changes will be seen only by you. Learn more »
save as personal
new!
launch autoscroll
font size
0
reset
how to read this tab
guitar tuner
Autoscroll
slow
fast
+/-
esc
set tempo
stop
                                        tr~
E-||----------2-3-|-5--2-3-5-|-7--5--3-|-2--0-2-|---------2-3-|-5--3-2p0-|----0----|
B-||--3p2-3-5-----|----------|---------|--------|-3p2-3-5-----|-2--------|-3--3--2-|
G-||*-------------|----------|---------|--------|---------0---|----------|---------|
D-||*-------------|-0--------|-5--4--2-|-0------|-4-----------|-4--------|-4-------|
A-||--------------|----------|---------|--------|-2-----------|------0---|-2--0----|
D-||--0-----------|----------|---------|--------|-------------|----------|---------|


                    c2
                                                  tr~
E-|-------|| |--2--)2------|-0------|-5----------|--------|---0-2p0-----|----------|
B-|--3.---|| |--3--(3--5p3-|-2--0---|---8-7--5---|-2--0---|-3-------3---|-0----0-2-|
G-|------*|| |-----)4------|-2----2-|----------7-|------2-|-----------5-|-0--2-----|
D-|--4.--*|| |--0--(4------|--------|------------|--------|-4-----------|---0------|
A-|-------|| |-----)2------|-0------|------------|-0------|-------------|----------|
D-|--0.---|| |-------------|--------|-0---5--6---|--------|-0-------4---|-5--------|


                                  tr~
E-|----0----|------|--2--)2------|--------|-5----------|--------|---0-2p0-----|
B-|-3--3--2-|--3.--|--3--(3--5p3-|-2--0---|---8-7--5---|-2--0---|-3-------3---|
G-|---------|------|-----)4------|-2----2-|----------7-|------2-|-----------5-|
D-|---------|--4.--|--0--(4------|--------|------------|--------|-4-----------|
A-|-2--0----|------|-----)2------|-0------|------------|-0------|-------------|
D-|---------|--0.--|-------------|--------|-0---5--6---|--------|-0-------4---|
              fine.
             


E-|--------------|----0----|------|
B-|-0h2p0----0-2-|-3--3--2-|--3.--|
G-|-0------2-----|---------|------| D.C. to Fine
D-|-------0------|---------|--4.--|
A-|--------------|-2--0----|------|
D-|-5------------|---------|--0.--|


...................._
Suggest correction
Give kudos to tab author, rate the tab!
1 2 3 4 5
comments
print report bad tab
guest
Wanna post a correction for this tab? Suggest correction