Oops, an error
Loading. Please wait.

Bizet - Carmen Tab

version 2
version 2

Whole song

161 views 3 this week
no commentswrite comment
1 2 3 4 5
3 more votes to show rating
add to favorites
launch autoscroll
font size
0
reset
how to read this tab
guitar tuner
×
Best way to learn
"Bizet - Carmen"
Autoscroll
slow
fast
+/-
esc
set tempo
stop
e||--10--9--8--8--|--8--7--6--5--|--5--4--3--|--1-1-1-1--3--1--0--|
B||---------------|--------------|-----------|--------------------|
G||·--------------|--------------|-----------|--------------------|
D||·--------------|--------------|-----------|--------------------|
A||---------------|--------------|-----------|--------------------|
E||---------------|--------------|-----------|--------------------|

e||--10--9--8--8--|--8--7--6--5--|--5--3--1--|--0-0-0-0--1--0------||
B||---------------|--------------|-----------|-----------------3---||
G||---------------|--------------|-----------|--------------------·||
D||---------------|--------------|-----------|--------------------·||
A||---------------|--------------|-----------|---------------------||
E||---------------|--------------|-----------|---------------------||


e||--------0--2--|--5--2--0-----|--0--2--3--5--5--5--5--|
B||-----3--------|-----------3--|-----------------------|
G||·-2-----------|--------------|-----------------------|
D||·-------------|--------------|-----------------------|
A||--------------|--------------|-----------------------|
E||--------------|--------------|-----------------------|

e||--7--5--3--|-----0--2--3--|--7--3--2--0--|--2--3--5--7-7-7-7--|
B||-----------|--0-----------|--------------|--------------------|
G||-----------|--------------|--------------|--------------------|
D||-----------|--------------|--------------|--------------------|
A||-----------|--------------|--------------|--------------------|
E||-----------|--------------|--------------|--------------------|

e||--9--7--5--|--------0--2--|--5--2--0-----|--0--2--3--5-5-5-5--|
B||-----------|-----3--------|-----------3--|--------------------|
G||-----------|--2-----------|--------------|--------------------|
D||-----------|--------------|--------------|--------------------|
A||-----------|--------------|--------------|--------------------|
E||-----------|--------------|--------------|--------------------|

e||--10--9--3--|-----0--2--3--|--7--3--2--0--|--2--3--5--|
B||------------|--0-----------|--------------|-----------|
G||------------|--------------|--------------|-----------|
D||------------|--------------|--------------|-----------|
A||------------|--------------|--------------|-----------|
E||------------|--------------|--------------|-----------|

e||---9--7--5--3--|-----2------|---0--------||
B||---------------|------------|-------3----||
G||---------------|------------|-----------·||
D||---------------|------------|-----------·||
A||---------------|------------|------------||
E||---------------|------------|------------||


e||--------0--2--|--5--2--0-----|--0--2--3--5--5--5--5--|
B||-----3--------|-----------3--|-----------------------|
G||--2-----------|--------------|-----------------------|
D||--------------|--------------|-----------------------|
A||--------------|--------------|-----------------------|
E||--------------|--------------|-----------------------|

e||--7--5--3--|-----0--2--3--|--7--3--2--0--|--2--3--5--7-7-7-7--|
B||-----------|--0-----------|--------------|--------------------|
G||-----------|--------------|--------------|--------------------|
D||-----------|--------------|--------------|--------------------|
A||-----------|--------------|--------------|--------------------|
E||-----------|--------------|--------------|--------------------|

e||--9--7--5--|--------0--2--|--5--2--0-----|--0--2--3--5-5-5-5--|
B||-----------|-----3--------|-----------3--|--------------------|
G||-----------|--2-----------|--------------|--------------------|
D||-----------|--------------|--------------|--------------------|
A||-----------|--------------|--------------|--------------------|
E||-----------|--------------|--------------|--------------------|

e||--10--9--3--|-----0--2--3--|--7--3--2--0--|--2--3--5--|
B||------------|--0-----------|--------------|-----------|
G||------------|--------------|--------------|-----------|
D||------------|--------------|--------------|-----------|
A||------------|--------------|--------------|-----------|
E||------------|--------------|--------------|-----------|

e||--7-7-7-7--|--9--5--|-14-14-14-|-12-14-12-|--10--|------10---||
B||-----------|--------|----------|----------|------|--10-------||
G||-----------|--------|----------|----------|------|-----------||
D||-----------|--------|----------|----------|------|-----------||
A||-----------|--------|----------|----------|------|-----------||
E||-----------|--------|----------|----------|------|-----------||


SALU2 A TODOS,


EN ESPECIAL A LOS CRXZADOS DE CHILE!!!!
Suggest correction
Give kudos to tab author, rate the tab!
1 2 3 4 5
comments
print report bad tab
guest
You may want to rate the tab now too:
select rating
Wanna post a correction for this tab? Suggest correction