Oops, an error
Loading. Please wait.

Bolero - Ravel Tab

586 views 6 this week
no commentswrite comment
1 2 3 4 5
3 more votes to show rating
add to favorites
launch autoscroll
font size
0
reset
how to read this tab
guitar tuner
×
Best way to learn
"Bolero - Ravel"
Autoscroll
slow
fast
+/-
esc
set tempo
stop
Bolero
Maurice Ravel

  Afinación: D G D G B E

E||---------------------------|--------------------------|
B||---------------------------|--------------------------|
G||*--------------------------|--------------------------|
D||*-----0-0-0-0--0-0-0-0--0--|-----0-0-0-0--0-0-0-0--0--|
G||---0-----------------------|--0-----------------------|
D||---------------------------|--------------------------|


--3-----------2-3-5-3-2-0-|--3--3-0-3-------2-3-|--0-----------------|
--------------------------|---------------------|----3-0-1-3---------|
--------------------------|---------------------|--------------------|
-----0-0-0-0--------------|---------0-----------|----------0---------|
--0-----------------------|--0------------------|--0-----------------|
------------------0-------|--------------0------|---------------0----|


----------------0------|---------0-2-0---------|----------------------|
----1-0---0-1-3---3----|---------------3-1-0---|--0-------------0--1--|
--------2--------------|---------------------2-|----2-0-----0-2-------|
----------0------------|-------0---------------|---------0------------|
--0--------------------|--0--------------------|--0-------------------|
------------------0----|---------------0-------|----------------0-----|


---------------------|-------------------------|--5-------------3-2-0-2-3-|
-------3-------------|-------------------------|--------------------------|
--2------------------|-------------------------|--------------------------|
-------0--0-0-0-0--0-|-----0-0-0-0--0-0-0-0--0-|-----0-0-0-0--0-----------|
--0------------------|--0----------------------|--0-----------------------|
---------------------|-------------------------|------------------0-------|


--5-3-2----3-2-0-3-2-0---|-----------0--3-0-2---|------------0--3-0-2---|
-----------------------1-|----1-1-1-----------3-|--1--1-1-1-----------3-|
-------------------------|----------------------|-----------------------|
---------0---------------|--------0-------------|--0------0-------------|
--0----------------------|----------------------|-----------------------|
-----------------0-------|--------------0-------|---------------0-------|


---------------------|--------0--------------|---------------------|
---------------------|-----1----1-3-0--------|-----------------0-1-|
--2--2-0-2-------2-2-|--2-------------2--2-0-|--2-------2-0-2------|
--0------0-----------|--------0--------------|-------0-------------|
---------------------|--0--------------------|--0------------------|
--------------0------|----------------0------|--------------0------|


-----------------------|-----------------------|-----------------------|
--3--------------1-0---|-----------3-----3-----|----------3-----3------|
---------------------2-|--0--------4-----2-----|-0--------4-----2-----*|
-----0-0-0-0--0--------|-----0-0-0----0-----0--|----0-0-0----0-----0--*|
--0--------------------|--0--------------------|-0---------------------|
-----------------0-0---|-----------------------|-----------------------|


--------------0-------3-0---|--------------0-1-0---|-----------------|
---6------------3---6-----3-|--6--5-3-6----------3-|--------1-0---0--|
*-----------------5---------|----------------------|------------2----|
*-----0-0-0-0---------------|---------0------------|------0----------|
---0------------------------|--0-----------------0-|--------------0--|
--------------------0-------|--------------0-------|-----------------|


-------1--3--4--|-----4-----4--4--4--|--4--4--4--4--3-1-4--3-1-|
----------------|--------------------|-------------------------|
----------------|--------------------|-------------------------|
----------------|--------0-----------|-----------0-------------|
--0-------------|--0-----------------|--0----------------------|
----------0-----|--------------0-----|------------------0------|


--4-3-1-------------|--------------------------|------------------------|
--------4-3-1-0-----|--------------------------|--------------0----0-1--|
--------------------|--------------------------|-----------------2------|
----------0---------|-----0-0-0-0--0-0-0-0--0--|-----0-0-0-0------------|
--0-----------------|--0-----------------------|--0---------------------|
-----------------0--|--------------------------|-----------------0------|


----------------------|---------------------|----------5-7-5---5-------|
-------3--4--1--3--0--|----0----------------|----8-6-8-------8---8-6---|
----------------------|--2---2-0------------|------------------------8-|
-------0--------------|----------0--3-------|----------0---------------|
--0-------------------|--0----------0-------|--0-----------------------|
-------------0--------|----------------0----|------------------0-------|


--------------------|---------------|---------------------------|
--6-----------------|---------3-1---|-------------------1-------|
----8-7-----5-------|-------------3-|-------------1-3-1-1-3-1-0-|
---------0----------|-------0-------|-----0-0-0-0-------0-------|
--0-----------------|--0------------|--0----------------0-------|
---------------0----|-------------0-|---------------------------|


-----------------------|------------------------|
-----------3-----3-----|-----------3-----3------|
--0--------4-----2-----|--0--------4-----2-----*|
-----0-0-0----0-----0--|-----0-0-0----0-----0--*|
--0--------------------|--0---------------------|
-----------------------|------------------------|

|----------------------------||
|----------------------------||
|*--0--------0--------0-----*||
|*-----0-0-0-1--0-0-0-0--0--*||
|---0------------------------||
|----------------------------||

------4-3-1---------------|--3------------||
--0-------------4-3-1-----|--0------------||
----------------------3-1-|--0------------||
--0-----------------------|--0------------||
--0-----------------------|--0------------||
--------------------------|---------------||
Suggest correction
Give kudos to tab author, rate the tab!
1 2 3 4 5
comments
print report bad tab
guest
You may want to rate the tab now too:
select rating
Wanna post a correction for this tab? Suggest correction