Oops, an error
Loading. Please wait.

Calegari Tab

61 views 1 this week
no commentswrite comment
1 2 3 4 5
3 more votes to show rating
add to favorites
launch autoscroll
font size
0
reset
how to read this tab
guitar tuner
×
Best way to learn
"Calegari"
Autoscroll
slow
fast
+/-
esc
set tempo
stop
|------------------------------------------|------------------------------------------|
|---0-----------1-----------0--------------|---3---1---0-----------1-----------0---1--|
|-------0-----------2-----------0-------2--|---------------0-----------2--------------|
|-----------0-----------0-----------0------|-------------------0-----------0----------|
|------------------------------------------|------------------------------------------|
|------------------------------------------|------------------------------------------|


|--------------------------------------|--------------------------------------|
|-----------0-----------1-----------0--|---------------3---1---0-----------1--|
|---2---0-------0-----------2----------|---0-------2---------------0----------|
|-------------------0-----------0------|-------0-----------------------0------|
|--------------------------------------|--------------------------------------|
|--------------------------------------|--------------------------------------|


|-------------------------------2---2------|---3---3------------------------------|
|-----------0---1---------------1---1------|---0---0-------1---1-------0---0------|
|---2---------------2---0------------------|---------------2---2-------0---0------|
|-------0-------------------0-----------0--|-----------0-----------0-----------0--|
|------------------------------------------|--------------------------------------|
|------------------------------------------|--------------------------------------|


|---2---2-------3---3----------------------|---2---2-------3---3----------------------|
|---1---1-------0---0-------1---1---0------|---1---1-------0---0-------1---1-------0--|
|---------------------------2---2---0------|---------------------------2---2-------0--|
|-----------0-----------0-----------0---0--|-----------0-----------0-----------0------|
|------------------------------------------|------------------------------------------|
|------------------------------------------|------------------------------------------|


|-----------2---2-------3---3--------------|--------------------------------------|
|---0-------1---1-------0---0-------1---1--|---0---0-----------1-----------0------|
|---0-------------------------------2---2--|---0-------0-----------2-----------0--|
|-------0-----------0-----------0----------|---0-----------0-----------0----------|
|------------------------------------------|--------------------------------------|
|------------------------------------------|--------------------------------------|


|------------------------------------------|---------------------------------|
|-----------3---1---0-----------1----------|------0------1-------------------|
|-------2---------------0-----------2------|--------------------2------0-----|
|---0-----------------------0-----------0--|---------------------------------|
|------------------------------------------|---------------------------------|
|------------------------------------------|---------------------------------|
Suggest correction
Give kudos to tab author, rate the tab!
1 2 3 4 5
comments
print report bad tab
guest
You may want to rate the tab now too:
select rating
Wanna post a correction for this tab? Suggest correction