Oops, an error
Loading. Please wait.

Canción Del Emperador Tab

125 views 1 this week
no commentswrite comment
1 2 3 4 5
3 more votes to show rating
add to favorites
×
Save as Personal and add changes to this tab that will be seen only by you. Learn more ›
×
You can save this tab as Personal to edit and correct it or add notes. All changes will be seen only by you. Learn more »
save as personal
new!
launch autoscroll
font size
0
reset
how to read this tab
guitar tuner
Autoscroll
slow
fast
+/-
esc
set tempo
stop
Esta bien chida esta pieza clasica y tambien facil de tocar

AQUI VAMOS!!!!

LENTO
E--------------------------------|-0-------------------0----------|
B---0-------------0--------------|----------0-1h3-1-0--1----------|
F#--0-------------5--------------|-------3------------------------|
D--------------------------------|---------------------------0-2--|
A---2-------------2--------------|-3-------------------0-2-3-----0|
E--------------------------------|--------------------------------|


|--------------------------------|--------------------------------|
|-3-------------3----1---0-------|--------------------------------|
|-5------------------------------|-3-----1------3-----------------|
|------0--2-4-----0--------------|----1--2-----------1--2--1------|
|-2--4--------2-2----0-----------|--------------------------------|
|------------------------3-------|-2--------0---2-----------------|


|-------3---3---3----------------|-2----2--3---0---0--------------|
|-------0---0--------2-----------|-3-----------1------------------|
|-1------------------------------|--------------------------------|
|-2-------------2----------------|-0---------------------0--------|
|--------------------------------|------2------3---0-2-3----------|
|-0---------0--------------------|--------------------------------|


|------3-2-0---0-2-3--3----------|---2h3-2-3--2-0-----------0-----|
|--0---------3-----0-------------|-----------------3-1--0---------|
|--1------------------1----------|---3------------------1---------|
|--2---------------2--2----------|---0------------------2---------|
|--------------------------------|--------------------------------|
|--------------------------------|--------------------------------|

|-----0--------------------------|------3-2-0---0-2----3----3-----|
|--------4---2----4-----4--------|--0---------3--------0----0-----|
|-0---------------0-----0--------|--1------------------1----1-----|
|--------------------------------|--------------------------------|
|-2---------------2-----2--------|--------------------------------|
|--------------------------------|--------------------------------|

                                               BIII------|
|--2h3--2-3--2-0-----------0-----|----0---------------------------|
|-----------------3-1--0---------|------3--2----3----3------------|
|--3-------------------1---------|-0------------5----5------------|
|--0-------------------2---------|--------------------------------|
|--------------------------------|-2------------------------------|
|--------------------------------|--------------3----3------------|

                                   BIII----------------|
|-0--------------------0---0-----|--------------------------------
|-1-----0-1h0--1--3----1---1-----|--3--------------------1----0-1-
|-----3--------------------------|----------3-5--3----------3-----
|--------------------------------|------------------5-4--2--------
|-3--------------------3---3-----|-----------------------0--------
|--------------------------------|--3-----------------------------


|----------|-----------------------------|------------------------|
|-0--1--3--|-0-------0-------------------|-0--0--------0----------|
|----------|-1-------1-----0-1h0--1--3---|-0--0----3------3-------|
|----------|----2----2--2----------------|-0--0----2--------------|
|----------|-----------------------------|---------3--------------|
|----------|-0---------------------------|------------------------|


|----2---2-----------------------|---3----------------0---0-------|
|-0---------0---2---3---1--------|-----1---0-1-0------0---0-------|
|-0------------------------------|----------------3---1---1-------|
|--------------------------------|---2----------------2---2-------|
|-2------2-----------------------|--------------------------------|
|--------------------------------|--------------------------------|


|-2------3--5----7h5---7-----3---|--5--------------------3--------|
|-0--0---------------------------|---------0--1---0--1---0--------|
|-0------------------------------|-----3--------------------------|
|--------------------------------|--------------------------------|
|-2--2---------------------------|--------------------------------|
|--------------------------------|--------------------------------|


|--2---0---0------------0--------|--0-----------------------------|
|---------------0----4-----4-----|--------------------------------|
|--3-------0----0----------------|-----------1--0---3---1---3--1--|
|--------------------------------|--2--------------------------0--|
|---------------2----------------|--3--------------------------2--|
|--------------------------------|--------------------------------|


|--------------------------------|--------------------------------|
|--------------------------------|-----------0--------------------|
|-0------------------------------|----------------0---1---3-------|
|-----2----2---------1---2--1----|--2-----------------------------|
|-3--------2----0----------------|--2-----------------------------|
|-5--------3----2----------------|--0--------0--------------------|


|--------------------------------|--------------------------------|
|-3---0---3--------1-----0-------|---3------3---------------------|
|-5-------5----------------------|---3---0--0-----1---------------|
|--------------------------------|---0------0---------------------|
|-2-------2--------3-------------|----------------3---2-----------|
|--------------------------------|--------------------------------|


|-------5---5-----------0---2----|---3---0---3--0-----------------|
|-1-------------8---7------------|-----------------3--1--0--2-----|
|-3---------6--------------------|--------------------------------|
|--------------------------------|---2-------2--------------------|
|-0---------0--------------------|--------------------------------|
|--------------------------------|--------------------------------|


|--2--------0--------------------|--------------------------------|
|--3---0----1------0--1h0--------|--0-------0---------------------|
|---------------3----------3--1--|--0---1---0---1----0------------|
|--------------------------------|----------------------2----1-2-1|
|-----------0--------------------|--2-------2-----------0---------|
|--------------------------------|------0----------3-------2------|


|--3-2-0--3-2----3--------3------|--2---3--2--0-------------------|
|------------------------------2-|--3---------1-------------------|
|----------------------3---------|--------------------------------|
|--2----------------------2------|--0-------------------------0---|
|--------------------------------|------2-----3--0--2--3h2--3-----|
|--0-----------------------------|--------------------------------|

                                   BIII-----------------|
|--------0-------0--------0------|---------------------------------
|--0-----1-------1--------1------|--3---------------------1--------
|----------------1--------1------|---------3--5-3------------------
|--2-----2-----------------------|--5--------------5--4---2--------
|--------3-------3--------3------|------------------------0--------
|--------------------------------|--3------------------------------

                                                       BIII--------
|-------------------|----------0---------0-------0---|--------------
|----0--1h0---1-3---|--0-------1---------1-------1---|--3-----------
|-3-----------------|--1-----------------1-------1---|--------3--5--
|-------------------|----------2---------------------|--5-----------
|-------------------|----------3---------3-------3---|--------------
|-------------------|--0-----------------------------|--3-----------

-----------|                       Slow down--------------------hold
|--------------------------------|--------------------------------||
|--------------1------0--1h0--1-3|--0--0---2---3---0---3--0--2--3-||
|-3----------------3-------------|--1--1-------0---1---0--1-----0-||
|-----5--4-----2-----------------|-----2-------0---2---0--2-----0-||
|--------------0-----------------|-------------2-------2--------2-||
|--------------------------------|--0--0-----------0------0-------||

Listo!!! pues aqui esta la rola
saquenla esta bien chida
bueno raza nos vemos despues

SEE LATER!!!
Suggest correction
Give kudos to tab author, rate the tab!
1 2 3 4 5
comments
print report bad tab
guest
Wanna post a correction for this tab? Suggest correction