Oops, an error
Loading. Please wait.

Canon En D Tab

version 2
version 2

Whole song

85 views 1 this week
no commentswrite comment
1 2 3 4 5
3 more votes to show rating
add to favorites
launch autoscroll
font size
0
reset
how to read this tab
guitar tuner
Autoscroll
slow
fast
+/-
esc
set tempo
stop
Help us to improve Ultimate-Guitar.com Take our survey!
×
oLaa BaNDa PSS aKi LeS DeJo eSTa CaNCion Ke PSS Me GuSTa uN MoNtoN Y
La SaKe eSPeRo Y Les GuSTE Si No Se oie BN Me MaNDan La CoRReCCion a Mi
CoRReo ---> sheikav_42@


--5~----2--3--5~----2--3--------|---5-----------------------2---3--|
--------------------------------|-----------------2--3--5----------|
--------------------------------|--------2--4----------------------|
--------------------------------|----------------------------------|
--------------------------------|----------------------------------|
--------------------------------|----------------------------------|

----2~------------2~------------|----------------------------------|
----------3---5-----------------|-----------------------3---2---3--|
--------------------------------|---2---4---2-------2--------------|
-------------------------4---5--|---------------5------------------|
--------------------------------|----------------------------------|
--------------------------------|----------------------------------|


--------------------------------|----------------------------------|
--------------------------------|----------------------------------|
----------4---2-----------------|---------------------------2---4--|
---5~-------------5~-----4---2--|---4---2-------2---4---5----------|
--------------------------------|-----------5----------------------|
--------------------------------|----------------------------------|

--------------------------------|----------------------2---3---5---|
-------------------------2---3--|-----------2---3---5--------------|
----------4---2---4~------------|---2---4--------------------------|
---5~---------------------------|----------------------------------|
--------------------------------|----------------------------------|
--------------------------------|----------------------------------|

---2~-------------2~------------|---------------------------------|
---------3---5----------5---3---|---5---2---3---5---5b-----3---2--|
--------------------------------|---------------------------------|
--------------------------------|---------------------------------|
--------------------------------|---------------------------------|
--------------------------------|---------------------------------|

--------------------------------|----------------------------------|
---3~---------2---3~------------|-----------------------3---2---3--|
----------4---------------------|---2---4---2-------2--------------|
-------------------------4---5--|---------------5------------------|
--------------------------------|----------------------------------|
--------------------------------|----------------------------------|

--------------------------------|----------------------------------|
----------3---2-----------------|--------------------------2---3---|
---4~-------------4~-----2------|---2--------------2----4----------|
-----------------------------5--|-------5---4---5------------------|
--------------------------------|----------------------------------|
--------------------------------|----------------------------------|

--------------------------------|------------------------------------|
----------3---2---3~-----2------|--2----3---5---3---2---3------2--3~-|
---4~------------------------4--|---------------------------4--------|
--------------------------------|------------------------------------|
--------------------------------|------------------------------------|
--------------------------------|------------------------------------|
Suggest correction
Give kudos to tab author, rate the tab!
1 2 3 4 5
comments
print report bad tab
guest
You may want to rate the tab now too:
select rating
Wanna post a correction for this tab? Suggest correction