Oops, an error
Loading. Please wait.

Canon En D Tab

version 3
version 3

Whole song

106 views 1 this week
no commentswrite comment
1 2 3 4 5
3 more votes to show rating
add to favorites
launch autoscroll
font size
0
reset
how to read this tab
guitar tuner
×
Best way to learn
"Canon En D"
Autoscroll
slow
fast
+/-
esc
set tempo
stop
buenas esta es mi primera transcripcion k hago pare lacuerda
espero k les guste
esta cancion sta afinada en "D" (re)
 esta tabulada para 3 guitarras
alguna sugerencia o critica constructiva
 mi correo es jessan5@ dudas comentarios etc

1er gutiarra
E  :----------------|----------------|----------------|----------------|
B  :----------------|----------------|----------------|----------------|
G  :------7---------|------4---------|--------------7-|----------------|
D  :--4-7---------7-|--0-4---------4-|------5---4-7---|------5-------7-|
A  :5---------4-7---|2---------0-4---|--2-5---5-------|--2-5-----4-7---|
E  :--------5-------|--------2-------|3---------------|3-------5-------|

  2da guitarra
E  :2-------0-------|2---------------|----------------|--------0-------|
B  :3-------2-------|3-------2-------|3-------3-------|3-------2-------|
G  :2-------2-------|4-------2-------|4-------2-------|4-------2-------|
D  :0-------2-------|4-------4-------|5-------4-------|5-------2-------|
A  :--------0-------|2-------x-------|x-------0-------|x-------0-------|
E  :----------------|--------2-------|3---------------|3---------------|

3era gutiarra
E  :----------------|----------------|----------------|----------------|
B  :----------------|----------------|----------------|----------------|
G  :----------------|----------------|----------------|----------------|
D  :----------------|----------------|----------------|----------------|
A  :----------------|----------------|----------------|----------------|
E  :----------------|----------------|----------------|----------------|

=======================================================================
1era guitarra
E  :----------------|----------------|----------------|----------------|
B  :----------------|----------------|----------------|----------------|
G  :------7---------|------4---------|--------------7-|----------------|
D  :--4-7---------7-|--0-4---------4-|------5---4-7---|------5-------7-|
A  :5---------4-7---|2---------0-4---|--2-5---5-------|--2-5-----4-7---|
E  :--------5-------|--------2-------|3---------------|3-------5-------|

   2da guitarra
E  :2-------0-------|2---------------|----------------|--------0-------|
B  :3-------2-------|3-------2-------|3-------3-------|3-------2-------|
G  :2-------2-------|4-------2-------|4-------2-------|4-------2-------|
D  :0-------2-------|4-------4-------|5-------4-------|5-------2-------|
A  :--------0-------|2-------x-------|x-------0-------|x-------0-------|
E  :----------------|--------2-------|3---------------|3---------------|

3era guitarra
E  :2-------0-------|----------------|----------------|----------------|
B  :----------------|3-------2-------|0---------------|0-------2-------|
G  :----------------|----------------|--------2-------|----------------|
D  :----------------|----------------|----------------|----------------|
A  :----------------|----------------|----------------|----------------|
E  :----------------|----------------|----------------|----------------|

=======================================================================
1era guitarra
E  :----------------|----------------|----------------|----------------|
B  :----------------|----------------|----------------|----------------|
G  :------7---------|------4---------|--------------7-|----------------|
D  :--4-7---------7-|--0-4---------4-|------5---4-7---|------5-------7-|
A  :5---------4-7---|2---------0-4---|--2-5---5-------|--2-5-----4-7---|
E  :--------5-------|--------2-------|3---------------|3-------5-------|

      2da guitarra
E  :2-------0-------|2---------------|----------------|--------0-------|
B  :3-------2-------|3-------2-------|3-------3-------|3-------2-------|
G  :2-------2-------|4-------2-------|4-------2-------|4-------2-------|
D  :0-------2-------|4-------4-------|5-------4-------|5-------2-------|
A  :--------0-------|2-------x-------|x-------0-------|x-------0-------|
E  :----------------|--------2-------|3---------------|3---------------|

3era guitarra
E  :2-------0-------|----------------|----------------|----------------|
B  :3-------2-------|3-------2-------|0---------------|0-------2-------|
G  :----------------|4-------2-------|0-------2-------|0-------2-------|
D  :----------------|----------------|--------4-------|----------------|
A  :----------------|----------------|----------------|----------------|
E  :----------------|----------------|----------------|----------------|

=======================================================================
1era
E  :----------------|----------------|----------------|----------------|
B  :----------------|----------------|----------------|----------------|
G  :------7---------|------4---------|--------------7-|----------------|
D  :--4-7---------7-|--0-4---------4-|------5---4-7---|------5-------7-|
A  :5---------4-7---|2---------0-4---|--2-5---5-------|--2-5-----4-7---|
E  :--------5-------|--------2-------|3---------------|3-------5-------|

    2da
E  :2-------0-------|2---------------|----------------|--------0-------|
B  :3-------2-------|3-------2-------|3-------3-------|3-------2-------|
G  :2-------2-------|4-------2-------|4-------2-------|4-------2-------|
D  :0-------2-------|4-------4-------|5-------4-------|5-------2-------|
A  :--------0-------|2-------x-------|x-------0-------|x-------0-------|
E  :----------------|--------2-------|3---------------|3---------------|

3era
E  :----2---5---3---|2-------2---0---|----------------|----------------|
B  :3---3-----------|----3-----------|3---0---3-------|3-------3---2---|
G  :----------------|----4-------2---|----0-------2---|----4-------2---|
D  :----------------|----------------|----------------|----------------|
A  :----------------|----------------|----------------|----------------|
E  :----------------|----------------|----------------|----------------|

=======================================================================

E  :----------------|----------------|----------------|----------------|
B  :----------------|----------------|----------------|----------------|
G  :------7---------|------4---------|--------------7-|----------------|
D  :--4-7---------7-|--0-4---------4-|------5---4-7---|------5-------7-|
A  :5---------4-7---|2---------0-4---|--2-5---5-------|--2-5-----4-7---|
E  :--------5-------|--------2-------|3---------------|3-------5-------|


E  :2-------0-------|2---------------|----------------|--------0-------|
B  :3-------2-------|3-------2-------|3-------3-------|3-------2-------|
G  :2-------2-------|4-------2-------|4-------2-------|4-------2-------|
D  :0-------2-------|4-------4-------|5-------4-------|5-------2-------|
A  :--------0-------|2-------x-------|x-------0-------|x-------0-------|
E  :----------------|--------2-------|3---------------|3---------------|


E  :----------------|----------2-5---|3-2-0-3-2-0-----|----------------|
B  :3-2-3-----------|--3-2-0-2-----0-|------------3-2-|0---------------|
G  :----------2-----|----------------|----------------|--2-0-----0-----|
D  :------------2-4-|----------------|----------------|------4-2---4-2-|
A  :----------------|----------------|----------------|----------------|
E  :----------------|----------------|----------------|----------------|

=======================================================================

E  :----------------|----------------|----------------|----------------|
B  :----------------|----------------|----------------|----------------|
G  :------7---------|------4---------|--------------7-|----------------|
D  :--4-7---------7-|--0-4---------4-|------5---4-7---|------5-------7-|
A  :5---------4-7---|2---------0-4---|--2-5---5-------|--2-5-----4-7---|
E  :--------5-------|--------2-------|3---------------|3-------5-------|


E  :2-------0-------|2---------------|----------------|--------0-------|
B  :3-------2-------|3-------2-------|3-------3-------|3-------2-------|
G  :2-------2-------|4-------2-------|4-------2-------|4-------2-------|
D  :0-------2-------|4-------4-------|5-------4-------|5-------2-------|
A  :--------0-------|2-------x-------|x-------0-------|x-------0-------|
E  :----------------|--------2-------|3---------------|3---------------|


E  :----------------|----------------|----------------|----------------|
B  :----------------|----------------|----------------|------0---------|
G  :------0-2---2-0-|--4-2---2-------|0-----0---------|0-------2-4-2-0-|
D  :0-2-4-----2-----|4-----5---5-4-2-|--4-2---4-2-0-4-|--4-2-----------|
A  :----------------|----------------|----------------|----------------|
E  :----------------|----------------|----------------|----------------|

=======================================================================

E  :----------------|----------------|----------------|----------------|
B  :----------------|----------------|----------------|----------------|
G  :------7---------|------4---------|--------------7-|----------------|
D  :--4-7---------7-|--0-4---------4-|------5---4-7---|------5-------7-|
A  :5---------4-7---|2---------0-4---|--2-5---5-------|--2-5-----4-7---|
E  :--------5-------|--------2-------|3---------------|3-------5-------|


E  :2-------0-------|2---------------|----------------|--------0-------|
B  :3-------2-------|3-------2-------|3-------3-------|3-------2-------|
G  :2-------2-------|4-------2-------|4-------2-------|4-------2-------|
D  :0-------2-------|4-------4-------|5-------4-------|5-------2-------|
A  :--------0-------|2-------x-------|x-------0-------|x-------0-------|
E  :----------------|--------2-------|3---------------|3---------------|


E  :--------0-------|--------2-------|--------------0-|----------0-----|
B  :------3-----2---|3---------------|0---0-----------|0---0-------2-0-|
G  :----2-----2---0-|----4-------2---|------0-2---0---|------0-2-------|
D  :4-0-------------|--4---4---4---2-|--0-------0-----|--0-------------|
A  :----------------|----------------|----------------|----------------|
E  :----------------|----------------|----------------|----------------|

=====================================================================

E  :---------------------------|---------------------------|
B  :---------------------------|---------------------------|
G  :--------7------------------|--------4------------------|
D  :--4---7-----------------7--|--0---4-----------------4--|
A  :5---------------4---7------|2---------------0---4------|
E  :------------5--------------|------------2--------------|


E  :2-----------0--------------|2--------------------------|
B  :3-----------2--------------|3-----------2--------------|
G  :2-----------2--------------|4-----------2--------------|
D  :0-----------2--------------|4-----------4--------------|
A  :------------0--------------|2-----------x--------------|
E  :---------------------------|------------2--------------|


E  :5-2-3-5-2-3-5---------0-2-3|2-----2--------------------|
B  :----------------0-2-3------|--3-5---------0------------|
G  :--------------2------------|----------0-2---2-0-2---0-2|
D  :---------------------------|--------4-------------4----|
A  :---------------------------|---------------------------|
E  :---------------------------|---------------------------|

============================================================

E  :---------------------------|------------------------|
B  :---------------------------|------------------------|
G  :------------------------7--|------------------------|
D  :--------5-------4---7------|--------5-------------7-|
A  :--2---5-----5--------------|--2---5---------4---7---|
E  :3--------------------------|3-----------5-----------|


E  :---------------------------|------------0-----------|
B  :3-----------3--------------|3-----------2-----------|
G  :4-----------2--------------|4-----------2-----------|
D  :5-----------4--------------|5-----------2-----------|
A  :x-----------0--------------|x-----------0-----------|
E  :3--------------------------|3-----------------------|


E  :---------------------------|--------------------0---|
B  :--0-----------------------0|--0---0-2-3---0-2-3-----|
G  :0---2-0---------------0-2--|0---2-------2-----------|
D  :--------4-2-4-2-0-2-4------|------------------------|
A  :---------------------------|------------------------|
E  :---------------------------|------------------------|

============================================================

E  :---------------------------|---------------------------|
B  :---------------------------|---------------------------|
G  :--------7------------------|--------4------------------|
D  :--4---7-----------------7--|--0---4-----------------4--|
A  :5---------------4---7------|2---------------0---4------|
E  :------------5--------------|------------2--------------|


E  :2-----------0--------------|2--------------------------|
B  :3-----------2--------------|3-----------2--------------|
G  :2-----------2--------------|4-----------2--------------|
D  :0-----------2--------------|4-----------4--------------|
A  :------------0--------------|2-----------x--------------|
E  :---------------------------|------------2--------------|


E  :2---0-2-0---0-----0-2-0----|---------------------------|
B  :--3-------3---2-3-------3-2|3---2-3---------------3-2-3|
G  :---------------------------|--4-----------0------------|
D  :---------------------------|--------0-2-4---4-2-4------|
A  :---------------------------|---------------------------|
E  :---------------------------|---------------------------|

==========================================================

E  :---------------------------|---------------------------|
B  :---------------------------|---------------------------|
G  :------------------------7--|---------------------------|
D  :--------5-------4---7------|--------5---------------7--|
A  :--2---5-----5--------------|--2---5---------4---7------|
E  :3--------------------------|3-----------5--------------|


E  :---------------------------|------------0--------------|
B  :3-----------3--------------|3-----------2--------------|
G  :4-----------2--------------|4-----------2--------------|
D  :5-----------4--------------|5-----------2--------------|
A  :x-----------0--------------|x-----------0--------------|
E  :3--------------------------|3--------------------------|


E  :---------------------------|---------------------------|
B  :--3-2-0---------------0-2-3|--3-2-3-2-0-2-3-5-3-2-3-0-2|
G  :4-------2-0-2-0---0-2------|4--------------------------|
D  :----------------4----------|---------------------------|
A  :---------------------------|---------------------------|
E  :---------------------------|---------------------------|

==============================================================

E  :--------------------|--------------------|--------------------|
B  :--------------------|--------------------|--------------------|
G  :--------7-----------|--------4-----------|------------------7-|
D  :--4---7-----------7-|--0---4-----------4-|--------5---4---7---|
A  :5-----------4---7---|2-----------0---4---|--2---5---5---------|
E  :----------5---------|----------2---------|3-------------------|


E  :2---------0---------|2-------------------|--------------------|
B  :3---------2---------|3---------2---------|3---------3---------|
G  :2---------2---------|4---------2---------|4---------2---------|
D  :0---------2---------|4---------4---------|5---------4---------|
A  :----------0---------|2---------x---------|x---------0---------|
E  :--------------------|----------2---------|3-------------------|


E  :----0-2---------0---|--------------------|--------------------|
B  :--3-----3-2-2-3---2-|3---2-3-------------|--------------------|
G  :2-------------------|--4-----4---2-0-----|--0-----0---------2-|
D  :--------------------|----------4-----4-2-|0---4-2---4-0-2-4---|
A  :--------------------|--------------------|--------------------|
E  :--------------------|--------------------|--------------------|
Suggest correction
Give kudos to tab author, rate the tab!
1 2 3 4 5
comments
print report bad tab
guest
You may want to rate the tab now too:
select rating
Wanna post a correction for this tab? Suggest correction