Oops, an error
Loading. Please wait.

Canon Version Rock tab

404 views 1 this week
no commentswrite comment
1 2 3 4 5
3 more votes to show rating
add to favorites
×
Save as Personal and add changes to this tab that will be seen only by you. Learn more ›
×
You can save this tab as Personal to edit and correct it or add notes. All changes will be seen only by you. Learn more »
launch autoscroll
font size
0
reset
how to read this tab
guitar tuner
edit
Autoscroll
slow
fast
+/-
esc
set tempo
stop
Buenas panitas de la cuerda, les envio esta trasncripcion de la
version roquera de canon, espero que les guste tanto como a mi.
Cualquier correcion agradezco la envien a mi correo
geobit89@ Suerte!!!!


                Canon Rock


Guitarra Lider


     CANON ROCK VERSION
     W                     W
E||---------------------|-------------------|
B||---------------------|-------------------|
G||---------------------|-------------------|
D||---------------------|-------------------|
A||---------------------|-------------------|
E||---------------------|-------------------|


  W
---------------------------------------------
---------------------------------------------
---------------------------------------------
---------------------------------------------
---------------------------------------------
---------------------------------------------


  W                   W
-------------------|-------------------|
-------------------|-------------------|
-------------------|-------------------|
-------------------|-------------------|
-------------------|-------------------|
-------------------|-------------------|


  W                   W
-------------------|-------------------|
-------------------|-------------------|
-------------------|-------------------|
-------------------|-------------------|
-------------------|-------------------|
-------------------|-------------------|


                       <          <
  W                    H          H
-------------------|------------------------|
-------------------|--19~--------17~--------|
-------------------|------------------------|
-------------------|------------------------|
-------------------|------------------------|
-------------------|------------------------|


   <          <
   H          H
------------------------|
--15~--------14~--------|
------------------------|
------------------------|
------------------------|
------------------------|


   <          <
   H          H
------------------------|
--12~--------10~--------|
------------------------|
------------------------|
------------------------|
------------------------|


   <          <
   H          Q      E   E
----------------------------|
--12~--------14~----15--17--|
----------------------------|
----------------------------|
----------------------------|
----------------------------|


   <
                      |---3---|
   H          E   E   S   S   S  E
--14~------------15--14h-15p-14-----|
-------------17-----------------17--|
------------------------------------|
------------------------------------|
------------------------------------|
------------------------------------|


   Q.       S   S  E   E   E   E
----------------------14--17--19--|
--15~------17p-15-14--------------|
----------------------------------|
----------------------------------|
----------------------------------|
----------------------------------|


       |--3--|                  |--3--|
   E   S  S  S  E   E   E   E   S  S  S  E
--15--14-15-14-----15--14-------------------|
---------------17----------17--15-17-15-----|
----------------------------------------14--|
--------------------------------------------|
--------------------------------------------|
--------------------------------------------|


   E   E   E   E   H
-----------------------------|
--------------15--14~--------|
--16--14--12-----------------|
-----------------------------|
-----------------------------|
-----------------------------|


       PM PM       PM PM
  Q    E  E  E  E  E  E
-------------------------|
-------------8--7--------|
--7----------------------|
--7----------------------|
--5----5--5--------5--5--|
-------------------------|


       PM PM       PM PM
  Q    E  E  E  E  E  E
-------------------------|
-------------5--7--------|
-------------------------|
--7----------------------|
--7----------------0--0--|
--5----5--5--------------|


       PM PM    PM    PM
  Q    E  E  E  E  E  E
-------------------------|
-------------2-----3-----|
--4----------------------|
--4----------------------|
--2----2--2-----2-----2--|
-------------------------|


       PM PM    PM    PM
  Q    E  E  E  E  E  E
-------------------------|
-------------------------|
-------------------------|
--4----------2-----4-----|
--4----------2-----4-----|
--2----2--2--0--0--2--2--|


       PM PM PM
  Q    E  E  E  Q     E
-------------------------|
-------------------------|
----------------4S----6--|
--5-------------5S----7--|
--5----------------------|
--3----3--3--3-----------|


       PM PM
  Q    E  E  E  E  E  E
-------------------------|
-------------8--7--5-----|
--7-------------------7--|
--7----------------------|
--5----5--5--------------|
-------------------------|


       PM PM
  Q    E  E  E   E   E  E
---------------------------|
---------------------------|
-------------4S--6h--7--6--|
--5------------------------|
--5------------------------|
--3----3--3----------------|


       PM PM
  Q    E  E  E   E   E  E
---------------------------|
---------------------------|
-------------6S--7h--9--7--|
--7------------------------|
--7------------------------|
--5----5--5----------------|


       PM PM       PM PM
  Q    E  E  E  E  E  E
-------------------------|
-------------8--7--------|
--7----------------------|
--7----------------------|
--5----5--5--------5--5--|
-------------------------|


       PM PM       PM PM
  Q    E  E  E  E  E  E
-------------------------|
-------------5--7--------|
-------------------------|
--7----------------------|
--7----------------0--0--|
--5----5--5--------------|


       PM PM    PM    PM
  Q    E  E  E  E  E  E
-------------------------|
-------------2-----3-----|
--4----------------------|
--4----------------------|
--2----2--2-----2-----2--|
-------------------------|


       PM PM    PM    PM
  Q    E  E  E  E  E  E
-------------------------|
-------------------------|
-------------------------|
--4----------2-----4-----|
--4----------2-----4-----|
--2----2--2--0--0--2--2--|


       PM PM PM
  Q    E  E  E  Q     E
-------------------------|
-------------------------|
----------------4S----6--|
--5-------------5S----7--|
--5----------------------|
--3----3--3--3-----------|


       PM PM
  Q    E  E  E  E  E  E
-------------------------|
-------------8--7--5-----|
--7-------------------7--|
--7----------------------|
--5----5--5--------------|
-------------------------|


       PM PM
  Q    E  E  E   E   E  E
---------------------------|
---------------------------|
-------------4S--6h--7--6--|
--5------------------------|
--5------------------------|
--3----3--3----------------|


       PM PM PM
  Q    E  E  E    Q.
--------------------------|
--------------------------|
----------------<>6b------|
--7-----------------------|
--7-----------------------|
--5----5--5--5------------|


   W                     H         H
---------------------|----------------------|
--19b----------------|--17-----------------|
---------------------|----------------------|
---------------------|----------------------|
---------------------|----------------------|
---------------------|----------------------|


   H         E   Q.
--------------------------|
--15b-----------15br------|
--------------------------|
--------------------------|
--------------------------|
--------------------------|


                    PM  PM
   H          Q     E   E
---------------------------|
--14b----------------------|
-------------14------------|
-------------------12--12--|
---------------------------|
---------------------------|


             |-----3-----|
    H        Q     Q     Q
------------------------------|
------------------------------|
--/16--------L----14----12----|
------------------------------|
------------------------------|
------------------------------|


   Q     Q     H
-------------------------|
--------15---------------|
--14----------11b--------|
-------------------------|
-------------------------|
-------------------------|


              |-----3-----|
    H         Q     Q     Q
-------------------------------|
-------------------------------|
--/16--------16----14----12----|
-------------------------------|
-------------------------------|
-------------------------------|


   H.             E    E
--------------------------|
--14b------------15S--17--|
--------------------------|
--------------------------|
--------------------------|
--------------------------|


   H         E   Q.
--14b-----------14pbr------|
---------------------------|
---------------------------|
---------------------------|
---------------------------|
---------------------------|


   H.            Q
----------------------|
--17b-----------------|
----------------------|
----------------------|
----------------------|
----------------------|


   H         E   Q.
---------------------------|
--15b-----------15pbr------|
---------------------------|
---------------------------|
---------------------------|
---------------------------|


   Q     Q     Q    Q
--------14----17---------|
--14---------------------|
-------------------------|
-------------------------|
-------------------------|
-------------------------|


   Q     Q     Q     Q
--19----17----15----17b----|
---------------------------|
---------------------------|
---------------------------|
---------------------------|
---------------------------|


   Q     Q     Q     Q
--17----15----14----17----|
--------------------------|
--------------------------|
--------------------------|
--------------------------|
--------------------------|


   Q     Q     Q     Q
--19----17----15----19----|
--------------------------|
--------------------------|
--------------------------|
--------------------------|
--------------------------|


   W
--19pbr----------------|
-----------------------|
-----------------------|
-----------------------|
-----------------------|
-----------------------|


  Q    Q    Q    Q
----------------------|
----------------------|
--7----6----7---------|
----------------------|
-----------------9----|
----------------------|


  H         Q    Q
----------------------|
----------------------|
-----------------6----|
--7b--------9---------|
----------------------|
----------------------|


       PM PM
  Q    E  E  Q    Q
-----------------------|
------------------7----|
--7----6--6--7---------|
-----------------------|
-----------------------|
-----------------------|


   W
---------------------|
--10b----------------|
---------------------|
---------------------|
---------------------|
---------------------|


       |--3--|
  Q    E  E  E  Q    Q
--------------------------|
--8----7--8--7-------8----|
----------------9---------|
--------------------------|
--------------------------|
--------------------------|


  E  E  E  E  H
------------------------|
--7---------------------|
-----9--7---------------|
-----------9--7b--------|
------------------------|
------------------------|


  Q    Q    Q    Q
----------------------|
----------------------|
-----------------7----|
--9----7----5---------|
----------------------|
----------------------|


          PM PM PM PM
    Q     E  E  E  E    Q
------------------------------|
------------------------------|
--<>6b------------------------|
----------7-------------------|
-------------7--5--4----------|
----------------------<>5b----|


  Q    Q    Q    Q
----------------------|
----------------------|
--7----6----7---------|
----------------------|
-----------------9----|
----------------------|


  H         Q    Q
----------------------|
----------------------|
-----------------6----|
--7b--------9---------|
----------------------|
----------------------|


  E  E  E   E    E   E   E   E
--------7--10S--14--10----------|
-----7------------------12------|
--7-------------------------11--|
--------------------------------|
--------------------------------|
--------------------------------|


   Q.       S   S  Q    Q
-----------------------------|
--10b------10S-12-10---------|
-----------------------------|
-----------------------------|
-----------------------------|
-----------------------------|


       |--3--|
  Q    E  E  E  Q    Q
--------------------------|
--8----7--8--7-------8----|
----------------9---------|
--------------------------|
--------------------------|
--------------------------|


  Q      Q     Q     Q
--------------10----14----|
--7S----10----------------|
--------------------------|
--------------------------|
--------------------------|
--------------------------|


   E   E   E   E   E   E   E   E
--15--14--12----------------------|
--------------15--14--12----------|
--------------------------14--12--|
----------------------------------|
----------------------------------|
----------------------------------|


   E   E   E   E   E   E   Q
--------------------------------|
--------------------------------|
--18--16--14--------------------|
--------------17--16--14S--7----|
--------------------------------|
--------------------------------|


                  |----3---|
  S  S  S S  S S  E    E   E   S  S  S  S   E
---------------9-12S--17--12-----------------
------------10----------------14-------------
----------9----------------------14----------
-------11---------------------------14-------
--7-12---------------------------------12S-16
---------------------------------------------


               |-----5-----|
   S  S  S  S  S  S  S  S  S  Q    Q
--21-17-------17-12---------------------|
--------17----------14------------------|
-----------18----------14---------------|
--------------------------14------------|
-----------------------------12---------|
----------------------------------------|


   Q     E   E   Q     E   E
--17----14--15--17----14--15--|
------------------------------|
------------------------------|
------------------------------|
------------------------------|
------------------------------|


   E   E   E   E   E   E   E   E
--17----------------------14--15--|
--------------14--15--17----------|
------14--16----------------------|
----------------------------------|
----------------------------------|
----------------------------------|


   Q     E   E   Q     E   E
--14------------14------------|
--------15--17----------------|
------------------------------|
----------------------16--17--|
------------------------------|
------------------------------|


   E   E   E   E   E   E   E   E
----------------------------------|
----------------------15--14--15--|
--14--16--14------14--------------|
--------------17------------------|
----------------------------------|
----------------------------------|


   Q     E   E   Q     E   E
------------------------------|
------------------------------|
--------16--14----------------|
--17------------17----16--14--|
------------------------------|
------------------------------|


   E   E   E   E   E   E   E   E
----------------------------------|
----------------------------------|
--------------------------14--16--|
--16--14------14--16--17----------|
----------17----------------------|
----------------------------------|


   Q     E   E   Q     E   E
------------------------------|
----------------------14--15--|
--------16--14--16------------|
--17--------------------------|
------------------------------|
------------------------------|


   E   E   E   E   E   E   E   E
----------------------14--15--17--|
----------14--15--17--------------|
--14--16--------------------------|
----------------------------------|
----------------------------------|
----------------------------------|


   Q     E   E   Q     E   E
--14------------14------------|
--------15--17--------17--15--|
------------------------------|
------------------------------|
------------------------------|
------------------------------|


   E   E   E   E   Q      E   E
---------------------------------|
--17--14--15--17--17b----15--14--|
---------------------------------|
---------------------------------|
---------------------------------|
---------------------------------|


   Q     E   E   Q     E   E
------------------------------|
--15--------14--15------------|
--------16--------------------|
----------------------16--17--|
------------------------------|
------------------------------|


   E   E   E   E   E   E   E   E
----------------------------------|
----------------------15--14--15--|
--14--16--14------14--------------|
--------------17------------------|
----------------------------------|
----------------------------------|


   Q     E   E   Q     E   E
------------------------------|
--------15--14----------------|
--16------------16----14------|
--------------------------17--|
------------------------------|
------------------------------|


   E   E   E   E   E   E   E   E
----------------------------------|
--------------------------14--15--|
--14--------------14--16----------|
------17--16--17------------------|
----------------------------------|
----------------------------------|


   Q     E   E   Q     E   E
------------------------------|
--------15--14--15----14------|
--16----------------------16--|
------------------------------|
------------------------------|
------------------------------|


   E   E   E   E   E   E   E   E
----------------------------------|
--14--15--17--15--14--15------14--|
--------------------------16------|
----------------------------------|
----------------------------------|
----------------------------------|


                  PM PM
   H        E  E  E  E
------------------------|
--15--------8--7--------|
------------------------|
------------------------|
------------------5--5--|
------------------------|


       PM PM       PM PM
  Q    E  E  E  E  E  E
-------------------------|
-------------5--7--------|
-------------------------|
--7----------------------|
--7----------------0--0--|
--5----5--5--------------|


       PM PM    PM    PM
  Q    E  E  E  E  E  E
-------------------------|
-------------2-----3-----|
--4----------------------|
--4----------------------|
--2----2--2-----2-----2--|
-------------------------|


       PM PM    PM    PM
  Q    E  E  E  E  E  E
-------------------------|
-------------------------|
-------------------------|
--4----------2-----4-----|
--4----------2-----4-----|
--2----2--2--0--0--2--2--|


       PM PM PM
  Q    E  E  E  Q     E
-------------------------|
-------------------------|
----------------4S----6--|
--5-------------5S----7--|
--5----------------------|
--3----3--3--3-----------|


       PM PM
  Q    E  E  E  E  E  E
-------------------------|
-------------8--7--5-----|
--7-------------------7--|
--7----------------------|
--5----5--5--------------|
-------------------------|


       PM PM
  Q    E  E  E   E   E  E
---------------------------|
---------------------------|
-------------4S--6h--7--6--|
--5------------------------|
--5------------------------|
--3----3--3----------------|


   |---3---|   |---3---|   |---3---|   |---3-
   E   E   E   E   E   E   E   E   E   E   E
---------------------------------------------
--------------------------------------14--15-
--------------14--16--18--14--16--18---------
--14--16--17---------------------------------
---------------------------------------------
---------------------------------------------


   W
---------------------|
--17b----------------|
---------------------|
---------------------|
---------------------|
---------------------|


     H.            Q
------------------------|
--<>17b-----------------|
------------------------|
------------------------|
------------------------|
------------------------|


   H        E     Q.
----------------------------|
--15-----------<>15brb------|
----------------------------|
----------------------------|
----------------------------|
----------------------------|


                    PM  PM
   H          Q     E   E
---------------------------|
--14b----------------------|
-------------14------------|
-------------------12--12--|
---------------------------|
---------------------------|


     H         E   Q     E
----------------------------|
----------------------------|
--<>16b--------L--14----12--|
----------------------------|
----------------------------|
----------------------------|


   Q     Q     H
-------------------------|
--------15---------------|
--14----------11b--------|
-------------------------|
-------------------------|
-------------------------|


   S  S  S  S  S  S  S  S  S  S  S  S  S  S
---------------------------------------------
--------------12-12-12-12-14-14-14-14-15-15-1
--12-12-12-12--------------------------------
---------------------------------------------
---------------------------------------------
---------------------------------------------


                                       |-----
   S  S  S  S  S  S  S  S  S  S  S  S  S  S
-----------14-15-17-15-14--------------------
--14-15-17----------------17-15-14----------1
-----------------------------------16-14-16--
---------------------------------------------
---------------------------------------------
---------------------------------------------


   H.             Q
-----------------------|
--17b------------22----|
-----------------------|
-----------------------|
-----------------------|
-----------------------|


   H            Q     Q
---------------------------|
--17pbr--------15----14----|
---------------------------|
---------------------------|
---------------------------|
---------------------------|


   H         E   Q.
---------------------------|
--15b-----------15pbr------|
---------------------------|
---------------------------|
---------------------------|
---------------------------|


   Q     Q     Q    Q
--------14----17---------|
--14---------------------|
-------------------------|
-------------------------|
-------------------------|
-------------------------|


   Q     Q     Q     Q
--19----17----15----19----|
--------------------------|
--------------------------|
--------------------------|
--------------------------|
--------------------------|


   Q     Q     H
--17----21----21b--------|
-------------------------|
-------------------------|
-------------------------|
-------------------------|
-------------------------|


   S  S  S  S  S  S  S  S  S  S  S  S  S  S
--19-15----------15-19-15-19-15----------15-1
--------15----15----------------15----15-----
-----------16----------------------16--------
---------------------------------------------
---------------------------------------------
---------------------------------------------


   S  S  S  S  S  S  S  S  H
--21-17-------21-17-------------------|
--------17----------17----------------|
-----------18----------18S-9pb--------|
--------------------------------------|
--------------------------------------|
--------------------------------------|


     PM    PM    PM
  E  E  E  E  E  E  E   E
---------------------------|
---------------------------|
--7-----6-----7------------|
-----0-----0-----0--4h--5--|
---------------------------|
---------------------------|


  E   E  E   E   E   E  E   E
-------------------------------|
-------------------------------|
------------------------6S--2--|
--7S--9--7p--6h--7h--9---------|
-------------------------------|
-------------------------------|


     PM    PM    PM    PM
  E  E  E  E  E  E  E  E
--------------------------|
--3--0--2--0--3--0--7--0--|
--------------------------|
--------------------------|
--------------------------|
--------------------------|


            PM
     Q.     E  E  E  E   E
----------------------------|
--<>10---------------7--10--|
------------6--7--9---------|
----------------------------|
----------------------------|
----------------------------|


   E  E   E  E  E  E   E  E
-----------------------------|
--12--0--10--0--8--0--12--0--|
-----------------------------|
-----------------------------|
-----------------------------|
-----------------------------|


         |---3---|
   Q     E   E   E   Q.       E
---------------------------------|
--10------------10--15pb---------|
------------11-------------------|
--------12-----------------------|
---------------------------------|
---------------------------------|


   S  S  S  S  S  S  S  S  S  S  S  S  S  S
---------------------------------------------
--15-12----------------12-15-12--------------
--------12----------12----------12----------1
-----------12----12----------------12----12--
--------------14----------------------14-----
---------------------------------------------


   S  S  S  S  S  S  S  S H
-------------------------------------|
--17-14-------17-14------------------|
--------14----------14---------------|
-----------14----------14-7pb--------|
-------------------------------------|
-------------------------------------|


     PM    PM    PM
  E  E  E  E  E  E  E   E
---------------------------|
---------------------------|
--7-----6-----7------------|
-----0-----0-----0--4h--5--|
---------------------------|
---------------------------|


  E   E  E   E   E   E  E   E
-------------------------------|
-------------------------------|
------------------------6S--2--|
--7S--9--7p--6h--7h--9---------|
-------------------------------|
-------------------------------|


     PM    PM    PM    PM
  E  E  E  E  E  E  E  E
--------------------------|
--3--0--2--0--3--0--7--0--|
--------------------------|
--------------------------|
--------------------------|
--------------------------|


     W
-----------------------|
--<>10b----------------|
-----------------------|
-----------------------|
-----------------------|
-----------------------|


   E  E   E  E  E  E   E  E
-----------------------------|
--12--0--10--0--8--0--12--0--|
-----------------------------|
-----------------------------|
-----------------------------|
-----------------------------|


   Q     S  S  S  S  S  S  S  S  S  S  S  S
-----------------10-14-17-14----------14-17-|
--10----------10-------------15----15-------|
-----------11-------------------14----------|
--------12----------------------------------|
--------------------------------------------|
--------------------------------------------|


   S  S  S  S  S  S  S  S  S  S  S  S  S  S
--19-15----------15-19-15-19-15----------15-1
--------15----15----------------15----15-----
-----------16----------------------16--------
---------------------------------------------
---------------------------------------------
---------------------------------------------


   H.            Q
--19b-----------------|
----------------------|
----------------------|
----------------------|
----------------------|
----------------------|


   Q     E   E   Q     E   E
--17----14--15--17----14--15--|
------------------------------|
------------------------------|
------------------------------|
------------------------------|
------------------------------|


   E   E   E   E   E   E   E   E
--17----------------------14--15--|
--------------14--15--17----------|
------14--16----------------------|
----------------------------------|
----------------------------------|
----------------------------------|


   Q     E   E   Q     E   E
--14------------14------------|
--------15--17----------------|
------------------------------|
----------------------16--17--|
------------------------------|
------------------------------|


   E   E   E   E   E   E   E   E
----------------------------------|
----------------------15--14--15--|
--14--16--14------14--------------|
--------------17------------------|
----------------------------------|
----------------------------------|


   Q     E   E   Q     E   E
------------------------------|
------------------------------|
--------16--14----------------|
--17------------17----16--14--|
------------------------------|
------------------------------|


   E   E   E   E   E   E   E   E
----------------------------------|
----------------------------------|
--------------------------14--16--|
--16--14------14--16--17----------|
----------17----------------------|
----------------------------------|


   Q     E   E   Q     E   E
------------------------------|
----------------------14--15--|
--------16--14--16------------|
--17--------------------------|
------------------------------|
------------------------------|


   E   E   E   E   E   E   E   E
----------------------14--15--17--|
----------14--15--17--------------|
--14--16--------------------------|
----------------------------------|
----------------------------------|
----------------------------------|


   Q     E   E   Q     E   E
--14------------14------------|
--------15--17--------17--15--|
------------------------------|
------------------------------|
------------------------------|
------------------------------|


   E   E   E   E   Q      E   E
---------------------------------|
--17--14--15--17--17b----15--14--|
---------------------------------|
---------------------------------|
---------------------------------|
---------------------------------|


   Q     E   E   Q     E   E
------------------------------|
--15--------14--15------------|
--------16--------------------|
----------------------16--17--|
------------------------------|
------------------------------|


   E   E   E   E   E   E   E   E
----------------------------------|
----------------------15--14--15--|
--14--16--14------14--------------|
--------------17------------------|
----------------------------------|
----------------------------------|


   Q     E   E   Q     E   E
------------------------------|
--------15--14----------------|
--16------------16----14------|
--------------------------17--|
------------------------------|
------------------------------|


   E   E   E   E   E   E   E   E
----------------------------------|
--------------------------14--15--|
--14--------------14--16----------|
------17--16--17------------------|
----------------------------------|
----------------------------------|


   Q     E   E   Q     E   E
------------------------------|
--------15--14--15----14------|
--16----------------------16--|
------------------------------|
------------------------------|
------------------------------|


   E   E   E   E   E   E   E   E
----------------------------------|
--14--15--17--15--14--15------14--|
--------------------------16------|
----------------------------------|
----------------------------------|
----------------------------------|


   W                 H
------------------------------|
--15~-------------------------|
------------------------------|
------------------------------|
------------------------------|
------------------------------|


  <
  H.            Q
---------------------|
---------------------|
---------------------|
--7~-----------------|
---------------------|
---------------------|


  <    <    <
  Q    Q    E   S  S Q
--------------------------|
--------------------------|
--------------------------|
--7----9----7h--9p-7-5----|
--------------------------|
--------------------------|


  <
  H.            Q
---------------------|
---------------------|
---------------------|
--4~-----------------|
---------------------|
---------------------|


  <    <
  Q    Q    E   S  S Q
--------------------------|
--7----8----7h--8p-7------|
---------------------9----|
--------------------------|
--------------------------|
--------------------------|


  Q    Q    Q    Q       H.            Q
----------------------|---------------------|
----------------------|---------------------|
--7----6----4----6----|--7~-----------------|
----------------------|---------------------|
----------------------|---------------------|
----------------------|---------------------|


  Q    Q    Q    Q
----------------------|
----------------------|
--7----6----4----5----|
----------------------|
----------------------|
----------------------|


    W
----------------------|
----------------------|
--<>6~----------------|
----------------------|
----------------------|
----------------------|


     PM    PM    PM     PM
  E  E  E  E  E  E   E  E
---------------------------|
---------------------------|
--7-----6-----7-----11-----|
-----0-----0-----0------0--|
---------------------------|
---------------------------|


           PM          PM
   E    E  E   E    E  E  E   E
---------------------------------|
---------------------------------|
--11S--14-----12S--11-----9S--6--|
-----------0-----------0---------|
---------------------------------|
---------------------------------|


     PM    PM    PM     PM
  E  E  E  E  E  E   E  E
---------------------------|
---------------------------|
--7-----6-----7-----11-----|
-----0-----0-----0------0--|
---------------------------|
---------------------------|


           PM          PM
   E    E  E   E    E  E   E    E
-----------------------------------|
--------------------------14S--10--|
--11S--14-----16S--14--------------|
-----------0-----------0-----------|
-----------------------------------|
-----------------------------------|


   |---3---|   |---3--|  |---3--|  |--3--|
   E   E   E   E  E   E  E   E  E  E  E  E
--------------------------------------------|
--12--12--10--12--8--12--7--10--8--7--------|
--------------------------------------9--7--|
--------------------------------------------|
--------------------------------------------|
--------------------------------------------|


   |---3--|   |---3--|  |---3--|  |--3--|
   E   E  E   E  E   E  E  E   E  E  E  E
-------------------------------------------|
--10--10--8--10--7--10---------------------|
------------------------9--7S--6-----------|
----------------------------------9--7--5--|
-------------------------------------------|
-------------------------------------------|


  |--3--|  |--3--|  |--3--|  |--3--|
  E  E  E  E  E  E  E  E  E  E  E  E
--------------------------------------|
-----------------------------5--7--8--|
-----------4--6--7--4--6--7-----------|
--4--5--7-----------------------------|
--------------------------------------|
--------------------------------------|

  |--3--|  |--3--|
  E  E  E  E  E  E   S S S  S  S S  S  S
-----------5--7--9--10-7-9-10-12-9-10-12-|
--5--7--8--------------------------------|
-----------------------------------------|
-----------------------------------------|
-----------------------------------------|
-----------------------------------------|


   S  S  S  S  S  S  S  S  S  S  S  S  S  S
--14-10----------10-14-10-14-10----------10-1
--------10----10----------------10----10-----
-----------11----------------------11--------
---------------------------------------------
---------------------------------------------
---------------------------------------------


   S S  S S  S S  S S  S S  S S  S S  S S
--12-9---------9-12-9-14-9------12-9------|
-------10---10-------------10--------10---|
----------9-------------------9---------9-|
------------------------------------------|
------------------------------------------|
------------------------------------------|


   S S S S S S  S S  S S S S S S  S S
--10-7-------7-10-7-10-7-------7-10-7-|
-------7---7-------------7---7--------|
---------7-----------------7----------|
--------------------------------------|
--------------------------------------|
--------------------------------------|


  S S S S S S S S S S S S S S S S
--9-5-------5-9-5-5-2-----5-2-----|
------7---7-----------2-------2---|
--------6---------------2-------2-|
----------------------------------|
----------------------------------|
----------------------------------|


  S S S S S S S S  S S S S S S  S S
--7-3-------3-7-3-10-7-------7-10-7-|
------3---3------------8---8--------|
--------4----------------7----------|
------------------------------------|
------------------------------------|
------------------------------------|


   S  S  S  S  S  S  S  S  S  S  S  S  S  S
--14-10-------14-10-------15-10-------17-14--
--------10----------10----------10----------1
-----------11----------11----------11--------
---------------------------------------------
---------------------------------------------
---------------------------------------------


   S  S  S  S  S  S  S  S  S  S  S  S  S  S
--19-15----------15-19-15-19-15----------15-1
--------15----15----------------15----15-----
-----------16----------------------16--------
---------------------------------------------
---------------------------------------------
---------------------------------------------


   S  S  S  S  S  S  S  S  S  S  S  S  Q
--17-12-------------------------------------|
--------14----17-14-------------------------|
-----------14-------14----18-14-------------|
-----------------------14-------14----------|
-----------------------------------16-12----|
--------------------------------------------|


   Q     E   E   Q     E   E
--17----13--15--17----13--15--|
------------------------------|
------------------------------|
------------------------------|
------------------------------|
------------------------------|


   E   E   E   E   E   E   E   E
--17----------------------13--15--|
--------------14--15--17----------|
------14--15----------------------|
----------------------------------|
----------------------------------|
----------------------------------|


   Q     E   E   Q     E   E
--13------------13------------|
--------15--17----------------|
------------------------------|
----------------------15--17--|
------------------------------|
------------------------------|


   E   E   E   E   E   E   E   E
----------------------------------|
----------------------15--14--15--|
--14--15--14------14--------------|
--------------17------------------|
----------------------------------|
----------------------------------|


   Q     E   E   Q     E   E
------------------------------|
--11----15--13--11------------|
----------------------14--12--|
------------------------------|
------------------------------|
------------------------------|


   E   E   E   E   E   E   E   E
----------------------------------|
----------------------11--14--15--|
--14--12--10--12--14--------------|
----------------------------------|
----------------------------------|
----------------------------------|


   Q     E   E   Q     E   E
----------------------12--13--|
--11----15--14--15------------|
------------------------------|
------------------------------|
------------------------------|
------------------------------|


   E   E   E   E   E   E   E   E
----------------------13--15--17--|
----------14--15--17--------------|
--14--15--------------------------|
----------------------------------|
----------------------------------|
----------------------------------|


   Q     E   E   Q     E   E
--13------------13------------|
--------15--17--------17--15--|
------------------------------|
------------------------------|
------------------------------|
------------------------------|


   E   E   E   E   Q      E   E
---------------------------------|
--17--14--15--17--17b----15--14--|
---------------------------------|
---------------------------------|
---------------------------------|
---------------------------------|


   Q     E   E   Q     E   E
------------------------------|
--15--------14--15------------|
--------15--------------------|
----------------------15--17--|
------------------------------|
------------------------------|


   E   E   E   E   E   E   E   E
----------------------------------|
----------------------15--14--15--|
--14--15--14------14--------------|
--------------17------------------|
----------------------------------|
----------------------------------|


   Q     E   E   Q     E   E
------------------------------|
--11----15--13--11------------|
----------------------14--12--|
------------------------------|
------------------------------|
------------------------------|


   E   E   E   E   E   E   E   E
----------------------------------|
----------------------11--14--15--|
--14--12--10--12--14--------------|
----------------------------------|
----------------------------------|
----------------------------------|


                       |---3---|
   Q     E   E   Q     E   E   E
----------------------------------|
--11----15--14--15----------------|
----------------------------------|
----------------------------------|
----------------------12--14--16--|
----------------------------------|


   |---3---|   |---3---|   |---3---|   |---3-
   E   E   E   E   E   E   E   E   E   E   E
--------------------------------------14--15-
--------------------------14--15--17---------
--------------12--14--16---------------------
--12--14--16---------------------------------
---------------------------------------------
---------------------------------------------


  W                H
----------------------------|
----------------------------|
----------------------------|
----------------------------|
----------------------------|
----------------------------|


   E   E   E   E   E   E   E   E
--17----------------------14--15--|
--------------14--15--17----------|
------14--16----------------------|
----------------------------------|
----------------------------------|
----------------------------------|


   Q     E   E   Q     E   E
--14------------14----14--15--|
--------15--17----------------|
------------------------------|
------------------------------|
------------------------------|
------------------------------|


                   |-----3-----|
   E   E   E   E   Q     Q     Q
--17--19--17--15--17----19----21----|
------------------------------------|
------------------------------------|
------------------------------------|
------------------------------------|
------------------------------------|


             |-----3-----|
   H         Q     Q     Q
--21b--------L----21----19----|
------------------------------|
------------------------------|
------------------------------|
------------------------------|
------------------------------|


   Q.        S   S   S   S   S   S   S  S   S
--17pb------14h-17h-19p-17p-14h-17p-14-------
---------------------------------------17h-19
---------------------------------------------
---------------------------------------------
---------------------------------------------
---------------------------------------------


   S   S   S   S   S  S   S   S   S   S   S
---------------------------------------------
--19p-17p-15h-17p-15-------------------------
---------------------16h-19p-16p-14h-16p-14--
--------------------------------------------1
---------------------------------------------
---------------------------------------------


   |-------5-------|  |-------5-------|
   S   S   S   S   S  S   S   S   S   S   H
---------------------------------------------
---------------------------------------------
---------------------------------------------
--19p-16p-14h-16p-14-------------------------
---------------------19p-16p-14h-16p-14p-12b-
---------------------------------------------


   Q     E   E   Q     E   E
--17----14--15--17----14--15--|
------------------------------|
------------------------------|
------------------------------|
------------------------------|
------------------------------|


   |---3---|   |---3---|   |---3---|   |---3-
   E   E   E   E   E   E   E   E   E   E   E
--18--18--15--18--14--18------18------18-----
--------------------------17------15------14-
---------------------------------------------
---------------------------------------------
---------------------------------------------
---------------------------------------------


   |----------3---------|
   H          H         H
--19S--------21b--------L--------|
---------------------------------|
---------------------------------|
---------------------------------|
---------------------------------|
---------------------------------|


  Q     E    E   E   E   E   E
--L----19p--17------------------|
----------------19--18--17--15--|
--------------------------------|
--------------------------------|
--------------------------------|
--------------------------------|


   H.             E   E
--17b------------17--15--|
-------------------------|
-------------------------|
-------------------------|
-------------------------|
-------------------------|


   Q     S   S   S   S  S   S   S   S   S   S
--14----15h-17p-15p-14-----------------------
-----------------------17p-15p-14S-12h-14h-15
---------------------------------------------
---------------------------------------------
---------------------------------------------
---------------------------------------------


   S   S   S   S   S   S   S  S   S   S   S
---------------------------------------------
---------------------------------------------
--14p-12p-11h-12h-14p-12p-11S-9h-11h-12p-11p-
---------------------------------------------
---------------------------------------------
---------------------------------------------


   S   S  S   S   S   S  S   S  Q     Q
-------------------------------------------|
-------------------------------------------|
-------------------------------------------|
--12p-11p-9h-11h-12p-11p-9h-11p-7b---------|
-------------------------------------------|
-------------------------------------------|


   H         Q     Q
------------------17----|
--15b-------------------|
------------------------|
------------------------|
------------------------|
------------------------|


   H          Q     Q
--17b--------17----15----|
-------------------------|
-------------------------|
-------------------------|
-------------------------|
-------------------------|


   H        Q     Q
--14-------------14----|
-----------------------|
-----------------------|
-----------------------|
-----------------------|
-----------------------|


   Q     Q     Q     Q
--14----15----14----------|
--------------------17----|
--------------------------|
--------------------------|
--------------------------|
--------------------------|


               PM PM  PM PM
   Q     Q     E  E   E  E
----------------------------|
--15----14----12--0--14--0--|
----------------------------|
----------------------------|
----------------------------|
----------------------------|


   H          S   S   S   S   S   S   S   S
--------------------------------------------|
--15b--------14h-15p-14h-15p-14h-15p-14h-15-|
--------------------------------------------|
--------------------------------------------|
--------------------------------------------|
--------------------------------------------|


           PM PM  PM PM  PM PM
     Q     E  E   E  E   E  E
-------------------------------|
--<>15----14--0--12--0--13--0--|
-------------------------------|
-------------------------------|
-------------------------------|
-------------------------------|


         |-----5-----|
   Q     S  S  S  S  S  Q     Q
--------17-12----------------------|
--14----------14-------------------|
-----------------14----------------|
--------------------14-------------|
-----------------------12b---------|
-----------------------------------|


   H         Q     Q
------------------17----|
--15b-------------------|
------------------------|
------------------------|
------------------------|
------------------------|


                    |----3----|
   H          Q     E    E    E
--17b--------17----15h--17p--15--|
---------------------------------|
---------------------------------|
---------------------------------|
---------------------------------|
---------------------------------|


   Q.      Q.      Q
--14------17------17----|
------------------------|
------------------------|
------------------------|
------------------------|
------------------------|


   W
--20b----------------|
---------------------|
---------------------|
---------------------|
---------------------|
---------------------|


   H          Q     Q
--19b--------19----21----|
-------------------------|
-------------------------|
-------------------------|
-------------------------|
-------------------------|


   Q.       E    H
--21b------17b---L--------|
--------------------------|
--------------------------|
--------------------------|
--------------------------|
--------------------------|


   Q      E   Q      E   Q
--19S----17--17S----15--15S----|
-------------------------------|
-------------------------------|
-------------------------------|
-------------------------------|
-------------------------------|


   E   Q      E   Q     Q
--14--14S----12--12-----------|
------------------------------|
-----------------------14S----|
------------------------------|
------------------------------|
------------------------------|


  Q.      E   E    E    E   E
--------------------------------|
---------10--10S--12p--10S--8S--|
--7-----------------------------|
--------------------------------|
--------------------------------|
--------------------------------|


                     |--3--|
  Q    E  E  E   E   S  S  S E
--------------------------------|
--7-------7--7h--8p--7h-8p-7----|
-----------------------------9--|
--------------------------------|
--------------------------------|
--------------------------------|


  E   E   E   E   Q     Q
-----------------------------|
-----------------------------|
--7p--6p--4h--6h--7~---------|
-----------------------------|
-----------------------------|
-----------------------------|


  E   E   E   E   Q      Q
------------------------------|
------------------------------|
--7p--6p--4h--5h--6S----14----|
------------------------------|
------------------------------|
------------------------------|


   Q     E   E   Q      E    E
------------17--17b----17p--15--|
--15~---------------------------|
--------------------------------|
--------------------------------|
--------------------------------|
--------------------------------|


   Q     E   E   E    E    E   E
--14~-------14--14h--15p--14------|
------------------------------17--|
----------------------------------|
----------------------------------|
----------------------------------|
----------------------------------|


   E    E   E    E   Q.      E
--------------------------------|
--15p--14--12h--14--15~---------|
--------------------------------|
--------------------------------|
--------------------------------|
--------------------------------|


   E    E   E    E   Q.       S   S
------------------------------------|
--15p--14--12h--13--14~------15S-17-|
------------------------------------|
------------------------------------|
------------------------------------|
------------------------------------|


   W                    W
---------------------|-------------------||
--15~----------------|--L----------------||
---------------------|-------------------||
---------------------|-------------------||
---------------------|-------------------||
---------------------|-------------------||


Duration Legend
---------------
W - w
H - half
Q - quarter
E - 8th
S - 16th
T - 32nd
X - 64th
. - note dotted
|-n-|  - n-tuplets


Tablature Legend
----------------
L - tied note
x - dead note
g - grace note
(n) - ghost note
> - accentuded note
NH - natural harmonic
AH - artificial harmonic
TH - tapped harmonic
SH - semi harmonic
PH - pitch harmonic
h - hammer on
p - pull off
b - bend
br - bendRelease
pb - preBend
pbr - preBendRelease
brb - bendReleaseBend
n/ - tremolo bar dip
n - tremolo bar dive
-/n - tremolo bar Release up
/n - tremolo bar inverted dip
/n - tremolo bar return
-n - tremolo bar Release down
S - shift slide
s - legato slide
/ -  slide into from below or out of upwards
 -  slide into from above or out of downwards
~ - vibrato
W - wide vibrato
tr - trill
TP - tremolo picking
T - tapping
S - slap
P - pop
< - fade in
^ - brush up
v - brush down

            
            
Suggest correction
Creating personal tab
Creating personal tab
You can edit any tab online and save it as your Personal.

You can edit, replace or remove any tab part or add personal notes – all changes will be seen only by you.

Personal tabs can be accessed anytime from any device, even offline.
Learn more »
Give kudos to tab author, rate the tab!
1 2 3 4 5
comments
print report bad tab
guest
Wanna post a correction for this tab? Suggest correction