Oops, an error
Loading. Please wait.

Canon Version Rock Bass Tab

180 views 1 this week
no commentswrite comment
1 2 3 4 5
3 more votes to show rating
add to favorites
launch autoscroll
font size
0
reset
guitar tuner
Autoscroll
slow
fast
+/-
esc
set tempo
stop
Help us to improve Ultimate-Guitar.com Take our survey!
×
(El bajo empieza en el tiempo 0:48 de la canción)
G||-------|-------|-------|-------|-------|-------|-------|-------|-------|
D||-------|-------|-------|-------|-------|-------|-------|-------|-------|
A||-------|-------|-------|-------|-------|-------|-------|-------|-------|
E||-------|-------|-------|-------|-------|-------|-------|-------|-------|


-------|-------|-------|-------|-------|-------|-------|
-------|-------|-------|-------|-------|-------|-------|
-------|-------|-------|-------|-------|-------|-------|
-------|-------|-------|-------|-------|-------|-------|


  Q    Q    Q    Q       Q    Q    Q    Q       Q    Q    Q    Q
----------------------|----------------------|----------------------|
----------------------|----------------------|----------------------|
--5-------------------|--0-------------------|--2---------4----5----|
----------------------|----------------------|----------------------|


  Q    Q    Q    Q       Q    Q    Q    Q       Q    Q    Q    Q
----------------------|----------------------|----------------------|
----------------------|----------------------|----------------------|
----------------------|----------------------|--5-------------------|
--2---------0----2----|--3-------------------|----------------------|


  Q    Q    Q    Q       H        E  E  E  E     H        E  Q.
----------------------|-----------------------|---------------------|
----------------------|-----------------------|---------------------|
----------------------|--0--------2--4--5--0--|--5--------5--5------|
--3-------------------|-----------------------|---------------------|


  H        E  Q.        H        E  E  Q       H        E  Q.
---------------------|----------------------|---------------------|
---------------------|----------------------|---------------------|
---------------------|--2--------2--2--2----|---------------------|
--5--------5--5------|----------------------|--2--------2--2------|


  H        E  Q     E     H        E  E  E  E     H        E  E  E  E
-----------------------|-----------------------|-----------------------|
-----------------------|-----------5--4--2-----|-----------------------|
--------------2S----5--|--5-----------------5--|-----------2--4--5--4--|
--3--------------------|-----------------------|--3--------------------|


  H        E  Q    E     H        E  Q.        H        E  Q.
----------------------|---------------------|---------------------|
----------------------|---------------------|---------------------|
----------------------|--5--------5--5------|---------------------|
--5--------5--5-------|---------------------|--5--------5--5------|


  H        E  Q.        H        Q    Q       H        E  Q.
---------------------|---------------------|---------------------|
---------------------|---------------------|---------------------|
--2--------2--2------|---------------------|---------------------|
---------------------|--2--------0----2----|--3--------3--3------|


  H        E  Q.        H        E  Q.        H        E  Q.
---------------------|---------------------|---------------------|
---------------------|---------------------|---------------------|
--5--------5--5------|---------------------|---------------------|
---------------------|--3--------3--3------|--5--------5--5------|


  H        E  Q.        H        E  Q.        H        E  Q.
---------------------|---------------------|---------------------|
---------------------|---------------------|---------------------|
--5--------5--5------|---------------------|--2--------2--2------|
---------------------|--5--------5--5------|---------------------|


  H        Q    Q       H        E  Q.        H        E  Q.
---------------------|---------------------|---------------------|
---------------------|---------------------|---------------------|
---------------------|---------------------|--5--------5--5------|
--2--------0----2----|--3--------3--3------|---------------------|


  H        E  Q.        H        E  Q.        H        E  Q.
---------------------|---------------------|---------------------|
---------------------|---------------------|---------------------|
---------------------|---------------------|--5--------5--5------|
--3--------3--3------|--5--------5--5------|---------------------|


  H        E  Q.        H        E  Q.        H        Q    Q
---------------------|---------------------|---------------------|
---------------------|---------------------|---------------------|
---------------------|--2--------2--2------|---------------------|
--5--------5--5------|---------------------|--2--------0----2----|


  H        E  Q.        H        E  Q.        H        E  Q.
---------------------|---------------------|---------------------|
---------------------|---------------------|---------------------|
---------------------|--5--------5--5------|---------------------|
--3--------3--3------|---------------------|--3--------3--3------|


  H        E  Q.        H        E  Q.        H        E  Q.
---------------------|---------------------|---------------------|
---------------------|---------------------|---------------------|
---------------------|--5--------5--5------|---------------------|
--5--------5--5------|---------------------|--5--------5--5------|


  H        E  Q.        H        Q    Q       H        E  Q.
---------------------|---------------------|---------------------|
---------------------|---------------------|---------------------|
--2--------2--2------|---------------------|---------------------|
---------------------|--2--------0----2----|--3--------3--3------|


  H        E  Q.        H        E  Q.        H        E  Q.
---------------------|---------------------|---------------------|-------|
---------------------|---------------------|---------------------|-------|
--5--------5--5------|---------------------|---------------------|-------|
---------------------|--3--------3--3------|--5--------5--5------|-------|


          E  E  E  E  E  E  E  E     E  E  E  E  E  E  E  E
-------|--------------------------|--------------------------|
-------|--------------------------|--------------------------|
-------|--5--5--5--5--5--5--5--5--|--------------------------|
-------|--------------------------|--5--5--5--5--5--5--5--5--|


  E  E  E  E  E  E  E  E     E  E  E  E  E  E  E  E
--------------------------|--------------------------|
--------------------------|--------------------------|
--2--2--2--2--2--2--2--2--|--------------------------|
--------------------------|--2--2--2--2--2--2--2--2--|


  E  E  E  E  E  E  E  E     E  E  E  E  E  E  E  E
--------------------------|--------------------------|
--------------------------|--------------------------|
--------------------------|--5--5--5--5--5--5--5--5--|
--3--3--3--3--3--3--3--3--|--------------------------|


  E  E  E  E  E  E  E  E     E  E  E  E  Q    S S S S
--------------------------|---------------------------|
--------------------------|---------------------------|
--------------------------|-------------------5-4-2-0-|
--3--3--3--3--3--3--3--3--|--5--5--5--5--5------------|


  H        E  E  Q       E  E  E  E  Q    S S S S    H        E  E  Q
----------------------|---------------------------|----------------------|
----------------------|---------------------------|----------------------|
--5--------5--5--5----|---------------------------|--2--------2--2--2----|
----------------------|--5--5--5--5--5----5-5-5-5-|----------------------|


  E  E  E  E  Q    S S S S    H        E  E  Q
---------------------------|----------------------|
---------------------------|----------------------|
---------------------------|----------------------|
--2--2--2--2--2----2-2-2-2-|--3--------3--3--3----|


  E  E  E  E  Q    S S S S    H        E  E  Q       E  E  E  E  H
---------------------------|----------------------|-----------------------|
---------------------------|----------------------|-----------------------|
--5--5--5--5--5----5-5-5-5-|----------------------|-----------------------|
---------------------------|--3--------3--3--3----|--5--5--5--5--5--------|


  Q    E  E  E  E  E  E     Q    E  E  E  E  E  E
-------------------------|-------------------------|
-------------------------|-------------------------|
--5----5--5--5--5--5--5--|-------------------------|
-------------------------|--5----5--5--5--5--5--5--|


  Q    E  E  E  E  E  E     Q    E  E  Q    Q
-------------------------|-----------------------|
-------------------------|-----------------------|
--2----2--2--2--2--2--2--|-----------------------|
-------------------------|--2----2--2--0----2----|


  Q    E  E  E  E  E  E     Q    E  E  E  E  E  E
-------------------------|-------------------------|
-------------------------|-------------------------|
-------------------------|--5----5--5--5--5--5--5--|
--3----3--3--3--3--3--3--|-------------------------|


                            |---3--|  |---3--|  |---3--|   |---3---|
  Q    E  E  E  E  E  E     E  E   E  E  E   E  E  E   E   E   E   E
-------------------------|--------------------------------------------|
-------------------------|------------7--9--11--7--9--11--11--12--14--|
-------------------------|--7--9--10----------------------------------|
--3----3--3--3--3--3--3--|--------------------------------------------|


  Q    E  E  E  E  E  E     Q    E  E  E  E  E  E
-------------------------|-------------------------|
-------------------------|-------------------------|
--5----5--5--5--5--5--5--|-------------------------|
-------------------------|--5----5--5--5--5--5--5--|


  Q    E  E  E  E  E  E     Q    E  E  Q    Q
-------------------------|-----------------------|
-------------------------|-----------------------|
--2----2--2--2--2--2--2--|-----------------------|
-------------------------|--2----2--2--0----2----|


  Q    E  E  E  E  E  E     Q    E  E  E  E  E  E
-------------------------|-------------------------|
-------------------------|-------------------------|
-------------------------|--5----5--5--5--5--5--5--|
--3----3--3--3--3--3--3--|-------------------------|


   S  S  S  S S S S S  S  S  S  S  S  S  S  S
----------------------------------------------|
--------------9-9-9-9-11-11-11-11-12-12-12-12-|
--10-10-10-10---------------------------------|
----------------------------------------------|


                                       |-----5-----|
   S  S  S  S  S  S  S  S  S  S  S  S  S  S  S  S  S
-----------11-12-14-12-11----------------------------|
--11-12-14----------------14-12-11----------11-12-14-|
-----------------------------------14-12-14----------|
-----------------------------------------------------|


  Q    E  E  E  E  E  E     Q    E  E  E  E  E  E
-------------------------|-------------------------|
-------------------------|-------------------------|
--5----5--5--5--5--5--5--|-------------------------|
-------------------------|--5----5--5--5--5--5--5--|


  Q    E  E  E  E  E  E     Q    E  E  Q    Q
-------------------------|-----------------------|
-------------------------|-----------------------|
--2----2--2--2--2--2--2--|-----------------------|
-------------------------|--2----2--2--0----2----|


  Q    E  E  E  E  E  E     Q    E  E  E  E  E  E
-------------------------|-------------------------|
-------------------------|-------------------------|
-------------------------|--5----5--5--5--5--5--5--|
--3----3--3--3--3--3--3--|-------------------------|


  Q    E  E  E  E  E  E     Q    E  E  E  E  E  E
-------------------------|-------------------------|
-------------------------|-------------------------|
-------------------------|-------------------------|
--3----3--3--3--3--3--3--|--5----5--5--5--5--5--5--|


  Q    E  E  E  E  E  E     Q    E  E  E  E  E  E
-------------------------|-------------------------|
-------------------------|-------------------------|
--5----5--5--5--5--5--5--|-------------------------|
-------------------------|--5----5--5--5--5--5--5--|


  Q    E  E  E  E  E  E     Q    E  E  Q    Q
-------------------------|-----------------------|
-------------------------|-----------------------|
--2----2--2--2--2--2--2--|-----------------------|
-------------------------|--2----2--2--0----2----|


  Q    E  E  E  E  E  E     Q    E  E  E  E  E  E
-------------------------|-------------------------|
-------------------------|-------------------------|
-------------------------|--5----5--5--5--5--5--5--|
--3----3--3--3--3--3--3--|-------------------------|


  Q    E  E  E  E  E  E     Q    E  E  E  E  E  E
-------------------------|-------------------------|
-------------------------|-------------------------|
-------------------------|-------------------------|
--3----3--3--3--3--3--3--|--5----5--5--5--5--5--5--|


  Q    E  E  E  E  E  E     Q    E  E  E  E  E  E
-------------------------|-------------------------|
-------------------------|-------------------------|
--5----5--5--5--5--5--5--|-------------------------|
-------------------------|--5----5--5--5--5--5--5--|


  Q    E  E  E  E  E  E     Q    E  E  Q    Q
-------------------------|-----------------------|
-------------------------|-----------------------|
--2----2--2--2--2--2--2--|-----------------------|
-------------------------|--2----2--2--0----2----|


  Q    E  E  E  E  E  E     Q    E  E  E  E  E  E
-------------------------|-------------------------|
-------------------------|-------------------------|
-------------------------|--5----5--5--5--5--5--5--|
--3----3--3--3--3--3--3--|-------------------------|


  Q    E  E  E  E  E  E     Q    E  E  E  E  E  E
-------------------------|-------------------------|
-------------------------|-------------------------|
-------------------------|-------------------------|
--3----3--3--3--3--3--3--|--5----5--5--5--5--5--5--|


  E  E  E  E  E  E  E  E     E  E  E  E  E  E  E  E
--------------------------|--------------------------|
--------------------------|--------------------------|
--5--5--5--5--5--5--5--5--|--------------------------|
--------------------------|--5--5--5--5--5--5--5--5--|


  E  E  E  E  E  E  E  E     E  E  E  E  E  E  E  E
--------------------------|--------------------------|
--------------------------|--------------------------|
--2--2--2--2--2--2--2--2--|--------------------------|
--------------------------|--2--2--2--2--2--2--2--2--|


  E  E  E  E  E  E  E  E     E  E  E  E  E  E  E  E
--------------------------|--------------------------|
--------------------------|--------------------------|
--------------------------|--5--5--5--5--5--5--5--5--|
--3--3--3--3--3--3--3--3--|--------------------------|


  E  E  E  E  E  E  E  E     E  E  E  E  Q    S S S S
--------------------------|---------------------------|
--------------------------|---------------------------|
--------------------------|-------------------5-4-2-0-|
--3--3--3--3--3--3--3--3--|--5--5--5--5--5------------|


  H        E  E  Q       E  E  E  E  Q    S S S S    H        E  E  Q
----------------------|---------------------------|----------------------|
----------------------|---------------------------|----------------------|
--5--------5--5--5----|---------------------------|--2--------2--2--2----|
----------------------|--5--5--5--5--5----5-5-5-5-|----------------------|


  E  E  E  E  Q    S S S S    H        E  E  Q
---------------------------|----------------------|
---------------------------|----------------------|
---------------------------|----------------------|
--2--2--2--2--2----2-2-2-2-|--3--------3--3--3----|


  E  E  E  E  Q    S S S S    H        E  E  Q       E  E  E  E  H
---------------------------|----------------------|-----------------------|
---------------------------|----------------------|-----------------------|
--5--5--5--5--5----5-5-5-5-|----------------------|-----------------------|
---------------------------|--3--------3--3--3----|--5--5--5--5--5--------|


          W                   W                   W
-------|-------------------|-------------------|-------------------|
-------|-------------------|-------------------|-------------------|
-------|-------------------|-------------------|-------------------|
-------|--5----------------|--5----------------|--2----------------|


  W                   W                   W
-------------------|-------------------|-------------------|
-------------------|-------------------|-------------------|
-------------------|--5----------------|--5----------------|
--2----------------|-------------------|-------------------|


  W                   W                   E  E  E  E  E  E  E  E
-------------------|-------------------|--------------------------|
-------------------|-------------------|--------------------------|
--5----------------|-------------------|--5--5--5--5--5--5--5--5--|
-------------------|--5----------------|--------------------------|


  E  E  E  E  E  E  E  E     E  E  E  E  E  E  E  E
--------------------------|--------------------------|
--------------------------|--------------------------|
--------------------------|--2--2--2--2--2--2--2--2--|
--5--5--5--5--5--5--5--5--|--------------------------|


  E  E  E  E  E  E  E  E     S S S S S S S S S S S S S S S S
--------------------------|----------------------------------|
--------------------------|----------------------------------|
--------------------------|----------------------------------|
--2--2--2--2--2--2--2--2--|--3-3-3-3-3-3-3-3-3-3-3-3-3-3-3-3-|


  S S S S S S S S S S S S S S S S    S S S S S S S S S S S S S S S S
----------------------------------|----------------------------------|
----------------------------------|----------------------------------|
--5-5-5-5-5-5-5-5-5-5-5-5-5-5-5-5-|----------------------------------|
----------------------------------|--3-3-3-3-3-3-3-3-3-3-3-3-3-3-3-3-|


  S S S S S S S S S S S S S S S S    S S S S S S S S S S S S S S S S
----------------------------------|----------------------------------|
----------------------------------|----------------------------------|
----------------------------------|--5-5-5-5-5-5-5-5-5-5-5-5-5-5-5-5-|
--5-5-5-5-5-5-5-5-5-5-5-5-5-5-5-5-|----------------------------------|


  S S S S S S S S S S S S S S S S    S S S S S S S S S S S S S S S S
----------------------------------|----------------------------------|
----------------------------------|----------------------------------|
----------------------------------|--2-2-2-2-2-2-2-2-2-2-2-2-2-2-2-2-|
--5-5-5-5-5-5-5-5-5-5-5-5-5-5-5-5-|----------------------------------|


  S S S S S S S S S S S S S S S S    S S S S S S S S S S S S S S S S
----------------------------------|----------------------------------|
----------------------------------|----------------------------------|
----------------------------------|----------------------------------|
--2-2-2-2-2-2-2-2-2-2-2-2-2-2-2-2-|--3-3-3-3-3-3-3-3-3-3-3-3-3-3-3-3-|


  S S S S S S S S S S S S S S S S    S S S S S S S S S S S S S S S S
----------------------------------|----------------------------------|
----------------------------------|----------------------------------|
--5-5-5-5-5-5-5-5-5-5-5-5-5-5-5-5-|----------------------------------|
----------------------------------|--3-3-3-3-3-3-3-3-3-3-3-3-3-3-3-3-|


  S S S S S S S S S S S S S S S S    E  E  E  E  E  E  E  E
----------------------------------|--------------------------|
----------------------------------|--------------------------|
----------------------------------|--5--5--5--5--5--5--5--5--|
--5-5-5-5-5-5-5-5-5-5-5-5-5-5-5-5-|--------------------------|


  E  E  E  E  E  E  E  E     E  E  E  E  E  E  E  E
--------------------------|--------------------------|
--------------------------|--------------------------|
--------------------------|--2--2--2--2--2--2--2--2--|
--5--5--5--5--5--5--5--5--|--------------------------|


  E  E  E  E  E  E  E  E     E  E  E  E  E  E  E  E
--------------------------|--------------------------|
--------------------------|--------------------------|
--------------------------|--------------------------|
--2--2--2--2--2--2--2--2--|--3--3--3--3--3--3--3--3--|


  E  E  E  E  E  E  E  E     E  E  E  E  E  E  E  E
--------------------------|--------------------------|
--------------------------|--------------------------|
--5--5--5--5--5--5--5--5--|--------------------------|
--------------------------|--3--3--3--3--3--3--3--3--|


  E  E  E  E  E  E  E  E     E  E  E  E  E  E  E  E
--------------------------|--------------------------|
--------------------------|--------------------------|
--------------------------|--5--5--5--5--5--5--5--5--|
--5--5--5--5--5--5--5--5--|--------------------------|


  E  E  E  E  E  E  E  E     E  E  E  E  E  E  E  E
--------------------------|--------------------------|
--------------------------|--------------------------|
--------------------------|--2--2--2--2--2--2--2--2--|
--5--5--5--5--5--5--5--5--|--------------------------|


  E  E  E  E  E  E  E  E     E  E  E  E  E  E  E  E
--------------------------|--------------------------|
--------------------------|--------------------------|
--------------------------|--------------------------|
--2--2--2--2--2--2--2--2--|--3--3--3--3--3--3--3--3--|


  E  E  E  E  E  E  E  E     E  E  E  E  E  E  E  E
--------------------------|--------------------------|
--------------------------|--------------------------|
--5--5--5--5--5--5--5--5--|--------------------------|
--------------------------|--3--3--3--3--3--3--3--3--|


  E  E  E  E  E  E  E  E             E  E  E  E  E  E  E  E
--------------------------|-------|--------------------------|
--------------------------|-------|--------------------------|
--------------------------|-------|--------------------------|
--5--5--5--5--5--5--5--5--|-------|--5--5--5--5--5--5--5--5--|


  E  E  E  E  E  E  E  E     E  E  E  E  E  E  E  E
--------------------------|--------------------------|
--------------------------|--------------------------|
--2--2--2--2--2--2--2--2--|--------------------------|
--------------------------|--2--2--2--2--2--2--2--2--|


  E  E  E  E  E  E  E  E     E  E  E  E  E  E  E  E
--------------------------|--------------------------|
--------------------------|--------------------------|
--------------------------|--5--5--5--5--5--5--5--5--|
--3--3--3--3--3--3--3--3--|--------------------------|


  E  E  E  E  E  E  E  E     E  E  E  E  E  E  E  E
--------------------------|--------------------------|
--------------------------|--------------------------|
--------------------------|--------------------------|
--3--3--3--3--3--3--3--3--|--5--5--5--5--5--5--5--5--|


  E  E  E  E  E  E  E  E     E  E  E  E  E  E  E  E
--------------------------|--------------------------|
--------------------------|--------------------------|
--5--5--5--5--5--5--5--5--|--------------------------|
--------------------------|--5--5--5--5--5--5--5--5--|


  E  E  E  E  E  E  E  E     E  E  E  E  E  E  E  E
--------------------------|--------------------------|
--------------------------|--------------------------|
--2--2--2--2--2--2--2--2--|--------------------------|
--------------------------|--2--2--2--2--2--2--2--2--|


  E  E  E  E  E  E  E  E     E  E  E  E  E  E  E  E
--------------------------|--------------------------|
--------------------------|--------------------------|
--------------------------|--5--5--5--5--5--5--5--5--|
--3--3--3--3--3--3--3--3--|--------------------------|


  E  E  E  E  E  E  E  E     E  E  E  E  E  E  E  E
--------------------------|--------------------------|
--------------------------|--------------------------|
--------------------------|--------------------------|
--3--3--3--3--3--3--3--3--|--5--5--5--5--5--5--5--5--|


  E  E  E  E  E  E  E  E     E  E  E  E  E  E  E  E
--------------------------|--------------------------|
--------------------------|--------------------------|
--5--5--5--5--5--5--5--5--|--------------------------|
--------------------------|--5--5--5--5--5--5--5--5--|


  E  E  E  E  E  E  E  E     E  E  E  E  E  E  E  E
--------------------------|--------------------------|
--------------------------|--------------------------|
--2--2--2--2--2--2--2--2--|--------------------------|
--------------------------|--2--2--2--2--2--2--2--2--|


  E  E  E  E  E  E  E  E     E  E  E  E  E  E  E  E
--------------------------|--------------------------|
--------------------------|--------------------------|
--------------------------|--5--5--5--5--5--5--5--5--|
--3--3--3--3--3--3--3--3--|--------------------------|


  E  E  E  E  E  E  E  E     E  E  E  E  E  E  E  E
--------------------------|--------------------------|
--------------------------|--------------------------|
--------------------------|--------------------------|
--3--3--3--3--3--3--3--3--|--5--5--5--5--5--5--5--5--|


  E  E  E  E  E  E  E  E     E  E  E  E  E  E  E  E
--------------------------|--------------------------|
--------------------------|--------------------------|
--5--5--5--5--5--5--5--5--|--------------------------|
--------------------------|--5--5--5--5--5--5--5--5--|


  E  E  E  E  E  E  E  E     E  E  E  E  E  E  E  E
--------------------------|--------------------------|
--------------------------|--------------------------|
--2--2--2--2--2--2--2--2--|--------------------------|
--------------------------|--2--2--2--2--2--2--2--2--|


  E  E  E  E  E  E  E  E     E  E  E  E  E  E  E  E
--------------------------|--------------------------|
--------------------------|--------------------------|
--------------------------|--5--5--5--5--5--5--5--5--|
--3--3--3--3--3--3--3--3--|--------------------------|


  E  E  E  E  E  E  E  E     E  E  E  E  E  E  E  E     W
--------------------------|--------------------------|-------------------|
--------------------------|--------------------------|-------------------|
--------------------------|--------------------------|--5----------------|
--3--3--3--3--3--3--3--3--|--5--5--5--5--5--5--5--5--|-------------------|


  W                   W                   W
-------------------|-------------------|-------------------|
-------------------|-------------------|-------------------|
-------------------|-------------------|-------------------|
--2----------------|--3----------------|--5----------------|


  W                   W                   W
-------------------|-------------------|-------------------|
-------------------|-------------------|-------------------|
--5----------------|--9----------------|-------------------|
-------------------|-------------------|--3----------------|


  W                   W                   W
-------------------|-------------------|-------------------||
-------------------|-------------------|-------------------||
-------------------|--5----------------|--L----------------||
--5----------------|-------------------|-------------------||


Duration Legend
---------------
W - whole
H - half
Q - quarter
E - 8th
S - 16th
T - 32nd
X - 64th
. - note dotted
|-n-|  - n-tuplets


Tablature Legend
----------------
L - tied note
x - dead note
g - grace note
(n) - ghost note
> - accentuded note
NH - natural harmonic
AH - artificial harmonic
TH - tapped harmonic
SH - semi harmonic
PH - pitch harmonic
h - hammer on
p - pull off
b - bend
br - bendRelease
pb - preBend
pbr - preBendRelease
brb - bendReleaseBend
n/ - tremolo bar dip
n - tremolo bar dive
-/n - tremolo bar Release up
/n - tremolo bar inverted dip
/n - tremolo bar return
-n - tremolo bar Release down
S - shift slide
s - legato slide
/ -  slide into from below or out of upwards
 -  slide into from above or out of downwards
~ - vibrato
W - wide vibrato
tr - trill
TP - tremolo picking
T - tapping
S - slap
P - pop
< - fade in
^ - brush up
v - brush down
Suggest correction
Give kudos to tab author, rate the tab!
1 2 3 4 5
comments
print report bad tab
guest
You may want to rate the tab now too:
select rating
Wanna post a correction for this tab? Suggest correction