Oops, an error
Loading. Please wait.

Cañones De Navarrone Tab

73 views 1 this week
no commentswrite comment
1 2 3 4 5
3 more votes to show rating
add to favorites
launch autoscroll
font size
0
reset
how to read this tab
guitar tuner
×
Best way to learn
"Cañones De Navarrone"
Autoscroll
slow
fast
+/-
esc
set tempo
stop
TIEMPO
  0:12                                       0:22
1----------------------------------------------------
2----------------------------------------------------
3----------------------------------------------------
4-----0-1---7-7-5-2---7-7-5-2---5-7-5-3-2---------2--
5-3-3----3---------3---------3-----------5---5--5-3-5
6----------------------------------------------------

  0:27                                      0:38 
1----------------------------------------------------
2----------------------------------------------------
3----------------------------------------------------
4------0-1--7-7-5-2--7-7-5-2--5-7-5-3-2-------2------
5-0-3-3---3--------3---------3----------5---5---5-3-3
6----------------------------------------------------


  1:04                                     1:15
1----------------------------------------------------
2----------------------------------------------------
3----------------------------------------------------
4-----0-1--7-7-5-2--7-7-5-2---5-7-5-3-2------2-------
5-3-3----3--------3---------3----------5---5---5-3-3-
6----------------------------------------------------

  1:59
1----------------------------------------------------
2----------------------------------------------------
3----------------------------------------------------
4----------------------------------------------------
5-3-3-5-7-3--9--9-7-5-3--9--9-7-5-3-9----------------
6----------------------------------------------------

  2:04
1----------------------------------------------------
2----------------------------------------------------
3----------------------------------------------------
4----------------------------------------------------
5--0-3-3-5-7-5--9-9-7-5-3---9-9-7-5-3--7-9-5-4-2-3--1-3-1-0-0
6----------------------------------------------------

se supone que esta rola es la de bonanza
esta bien facil
no estoy muy seguro del ultmo tiempo hay le chekan
Suggest correction
Give kudos to tab author, rate the tab!
1 2 3 4 5
comments
print report bad tab
guest
You may want to rate the tab now too:
select rating
Wanna post a correction for this tab? Suggest correction