Oops, an error
Loading. Please wait.

Canzone Chords

56 views 1 this week
no commentswrite comment
1 2 3 4 5
3 more votes to show rating
add to favorites
launch autoscroll
font size
0
reset
transpose
0
reset
display chords
guitar tuner
Autoscroll
slow
fast
+/-
esc
set tempo
stop
Help us to improve Ultimate-Guitar.com Take our survey!
×
Canzone by Anonymous
--------------------
Tabbed by Rene Puchinger - eof@
                           

This is very resounding Renaissance piece. It's very easy, so don't
afraid and try it. I recommned you to listen id from my MID file first.
In MID file I added some trills to decorate this piece. If there are
any errors, please, contact me.


Play it slowly
2/4 timing

 |       |        |       |        |       |        |       |        |
E|----------------|----------------|----------------|----------------|
B|----------------|-0-------3------|-3---2---3---2--|-3--------------|
G|*2--------------|-0--------------|-2-----4--------|-2--------------|
D|*4--------------|---------4------|-2--------------|-0--------------|
A|-5--------------|---------2------|-0--------------|----------------|
E|----------------|-3--------------|----------------|----------------|

                                                    |----------------|
                                                    |1.
 |       |        |       |        |       |        |       |        |
E|-2-----3--------|---------2------|-0--------------|-2--------------|
B|-3-----0--------|---------3------|-3---2-0-3---2--|-3--------------|
G|-2-----0--------|---------2------|-2--------------|-2-------------*|
D|-0--------------|---------0------|----------------|-0-------------*|
A|-----------0----|-2---4----------|-0--------------|----------------|
E|-------3--------|----------------|----------------|----------------|

 |----------------
 |2.
 |       |        |       |        |       |        |       |        |
E|-2--------------|----------------|--------3-------|-2--------------|
B|-3-----0--------|----------------|--------0-------|-3------5---3---|
G|-2-----0--------|*2--------------|----------------|----------------|
D|-0--------------|*4------2---0---|-2------2-------|-0--------------|
A|----------------|----------------|----------------|----------------|
E|----------------|----------------|----------------|----------------|


 |       |        |       |        |       |        |       |        |
E|-0------0-------|----------------|----------------|----------------|
B|-3------2-------|-3--------------|----------------|--------3-------|
G|----------------|---------2------|----------------|----------------|
D|----------------|-0-------0------|-2--------------|--------4-------|
A|-0--------------|----------------|-4------2---0---|-2------2-------|
E|----------------|----------------|----------------|----------------|


 |       |        |       |        |       |        |       |        |
E|----------------|----------------|----------------|----------------|
B|-2--------------|-0------0-------|-2--0---2---3---|-5------3-------|
G|-2------4---2---|-2------1-------|-2--------------|----------------|
D|----------------|----------------|----------------|--------0---2---|
A|-0--------------|----------------|-0--------------|----------------|
E|----------------|-0--------------|----------------|----------------|


 |       |        |       |        |       |        |       |        |
E|----------------|----------------|-----------0----|-2--------------|
B|--------2-------|-0--------------|-2--------------|-3--5---3---2---|
G|----1---2-------|-2--1---2---1---|-2--------------|----------------|
D|-4--------------|-2----4---------|----------------|-0------4-------|
A|----------------|----------------|-0--------------|--------2-------|
E|----------------|--------0-------|----------------|----------------|


 |       |        |       |        |       |        |       |        |
E|----------------|----0---3---2---|-0-----0--------|----0---5---3---|
B|--------0-------|-0------0-------|----------------|-2--------------|
G|-4------0-------|-0--------------|----------------|-2--------------|
D|----------------|--------2-------|----0-----------|----------------|
A|----0-----------|----------------|-------4----2---|-0--------------|
E|--------3---2---|-0--------------|----------------|----------------|


 |       |        |       |        |       |        |       |        |
E|-2--------------|----------------|--------3-------|-2--------------|
B|-3--5---3---2---|--------0-------|-0------0-------|-3------5---3---|
G|----------------|-4------0-------|-0------0-------|-4------2-------|
D|-0------4-------|----------------|--------2-------|--------0-------|
A|--------2-------|----0-----------|----------------|-2--------------|
E|----------------|--------3---2---|-0--------------|----------------|

                  |----------------|----------------
                  |1.              |2.
 |       |        |       |        |       |        |
E|-0--------------|-2--------------|-2--------------||
B|-3--2-0-3---2---|-3------0-------|-3--------------||
G|-2--------------|-2------0------*|-2--------------||
D|----------------|-0-------------*|-0--------------||
A|-0--------------|----------------|----------------||
E|----------------|----------------|----------------||
Suggest correction
Give kudos to tab author, rate the tab!
1 2 3 4 5
comments
print report bad tab
guest
You may want to rate the tab now too:
select rating
Wanna post a correction for this tab? Suggest correction