Oops, an error
Loading. Please wait.

Capricho 24Th Tab

version 1
version 1

Whole song

121 views 3 this week
no commentswrite comment
1 2 3 4 5
3 more votes to show rating
add to favorites
launch autoscroll
font size
0
reset
how to read this tab
guitar tuner
×
Best way to learn
"Capricho 24th"
Autoscroll
slow
fast
+/-
esc
set tempo
stop
Guitarra Acustica.

E||-------------------------------|
B||-----------------5-------------|
G||*--2---2-2h5-4-2---------------|
D||*--------------------2-2-6-4-2-|
A||-------------------------------|
E||-------------------------------|


---------------------------||--5---5-5h6-5-3---------------|
----------------5----------||----------------6---3-3h6-5-3-|
--2---2-2h5-4-2-----------*||------------------------------|
---------------------2----*||------------------------------|
---------------------------||------------------------------|
---------------------------||------------------------------|


--3---3-3-5-3-----------------|
--------------6-5-------------|
--------------------5-5h9-7-5-|
------------------------------|
------------------------------|
------------------------------|


------------------------------|--------------------------|
--6-------------5-------------|------4---5-3-0-----------|
------4-4-7-5-4-----2-2-5-4-2-|----------------2---------|
------------------------------|--3-----2-----------------|
------------------------------|---------------------0----|
------------------------------|--------------------------|


--5---5-5h6-5-3---------------|
----------------6---3-3h6-5-3-|
------------------------------|
------------------------------|
------------------------------|
------------------------------|


--3---3-3-5-3-----------------|
--------------6-5-------------|
--------------------5-5-9-7-5-|
------------------------------|
------------------------------|
------------------------------|


------------------------------|----------0---------------|
--6-------------5-------------|------4-----3-0-----------|
------4-4-7-5-4-----2-2-5-4-2-|----------------2---------|
------------------------------|--3-----2-----------------|
------------------------------|---------------------0----|
------------------------------|--------------------------|


|---12h8----0-----7h4---------|--12h8----0-----0--------||
|--------10-----------5-0-----|-------10----------------||
|*------------5---------------|------------5-----------*||
|*--------------7---------6---|--------------7---------*||
|---0-----------------------7-|--0----------------------||
|-----------------0-----------|--------------------0----||


--5h0---------------5-10-13-|--15----7----------------8-12-|
------2-----------6---------|-----15---8------------8------|
--------2-------7-----------|--0---------7--------9--------|
----------2---0-------------|--------------9---10----------|
--0---------4---------------|------------------------------|
----------------------------|----------------8-------------|


--13h10------------12h8-----------|-----------------------|
--------12-9------------10--------|-----------------------|
-------------10------------9------|----7-10---9-----------|
----------------12-----------10-7-|--9----------6-7-------|
----------------------------------|---------7-------------|
----------------------------------|------------------5----|


--5-0---------------------10-13-|
------2----------------10-------|
--------2-----------10----------|
----------2------12-------------|
--0---------4-------------------|
--------------10----------------|


--15-------------------------12-|
-----15-12-------0---------8----|
--0--------12------------9------|
--------------12------10--------|
--------------------------------|
--------------------8-----------|


--13h10------------12h8-----------|-----------------------|
--------12-9------------10--------|-----------------------|
-------------10------------9------|----7-10---9-----------|
----------------12-----------10---|--9----------6-7-------|
--------------------------------7-|---------7--------0----|
----------------------------------|-----------------------|


------------------0----|------------------1--0--|
--1------------0-------|--1---------0--4--------|
---------2--1----------|---------2--------------|
------------------2----|---------------1--3--2--|
--3------0-----2-------|--3------0--2-----------|
------------4----------|------------------------|


------------------0----|------------------1--0--|
--1------------0-------|--1---------0--4--------|
---------2--1----------|---------2--------------|
------------------2----|---------------1--3--2--|
--3------0-----2-------|--3------0--2-----------|
------------4----------|------------------------|


--5------------0--1--2--|--3------------------0--|
---------2--3-----------|---------0--1--3--4-----|
--2---------------------|--0---------------------|
------------0--2--3--4--|---------------0--1--2--|
---------4--------------|---------2--3-----------|
------------------------|------------------------|


--1---------0---------|-----1--0---------------|
---------0------------|--0-----------0---------|
-------------------2--|-----------1-------2----|
--3---------2---------|-----3--2---------------|
---------2---------0--|--2-----------2----0----|
----------------------|-----------4------------|


--5------------0--1--2--|--3------------------0--|
---------2--3-----------|---------0--1--3--4-----|
--2---------------------|--0---------------------|
------------0--2--3--4--|---------------0--1--2--|
---------4--------------|---------2--3-----------|
------------------------|------------------------|


--1---------0---------|-----1--0---------------|
---------0------------|--0-----------0---------|
-------------------2--|-----------1-------2----|
--3---------2---------|-----3--2---------------|
---------2---------0--|--2-----------2----0----|
----------------------|-----------4------------|


|------17-16-15-14-13-12-11-13-12-11-13-12----------|
|------------------------------------------12-------|
|*--14----------------------------------------13----|
|*-----------------------------------------------14-|
|---------------------------------------------------|
|---------------------------------------------------|


-----17-16-15-14-13-12-11-13-12-11-13-12-------||
-----------------------------------------------||
--14------------------------------------------*||
-------------------------------------------14-*||
-----------------------------------------------||
-----------------------------------------------||


-----17-16-15-14-13-12-10-9-12----9-10----------|
-------------------------------10------10-------|
--14--------------------------------------10----|
---------------------------------------------12-|
------------------------------------------------|
------------------------------------------------|


-----15-14-13-12-11-10-8-7-10---7-8--------|
------------------------------8-----8------|
--12----------------------------------9----|
----------------------------------------10-|
-------------------------------------------|
-------------------------------------------|


-----13-12-11-10-9-8-7---12-11-10-9-8-7-5-|
-----------------------9------------------|
--10--------------------------------------|
------------------------------------------|
------------------------------------------|
------------------------------------------|


---------------------17-12--------------|
--6h5----------------------13-----------|
------8-7-6-5-4---------------14-9------|
----------------6------------------10-7-|
------------------12--------------------|
----------------------------------------|


-----17-16-15-14-13-12-10-9-12----9-10----------|
-------------------------------10------10-------|
--14--------------------------------------10----|
---------------------------------------------12-|
------------------------------------------------|
------------------------------------------------|


-----13-12-11-10-9-8-7---12-11-10-9-8-7-5-|
-----------------------9------------------|
--10--------------------------------------|
------------------------------------------|
------------------------------------------|
------------------------------------------|


---------------------17-12--------------||
--6h5----------------------13-----------||
------8-7-6-5-4---------------14-9------||
----------------6------------------10-7-||
------------------12--------------------||
----------------------------------------||
Suggest correction
Give kudos to tab author, rate the tab!
1 2 3 4 5
comments
print report bad tab
guest
You may want to rate the tab now too:
select rating
Wanna post a correction for this tab? Suggest correction