Oops, an error
Loading. Please wait.

Carulli - Andante En G Tab

499 views 3 this week
no commentswrite comment
1 2 3 4 5
1 last vote to show rating
add to favorites
×
Save as Personal and add changes to this tab that will be seen only by you. Learn more ›
×
You can save this tab as Personal to edit and correct it or add notes. All changes will be seen only by you. Learn more »
save as personal
new!
launch autoscroll
font size
0
reset
how to read this tab
guitar tuner
Autoscroll
slow
fast
+/-
esc
set tempo
stop
Definitivamente esta es mi cancion favorita de Carulli, quiero agradecerle a mi amigo Pooch
por enseñarme esta hermosa pieza.
Es en velocidad moderada 2/4, en G, obviamente.
Sus comentarios son bienvenidos.

 e|------------------------|-------------------0--2-|-3-----3-----2-----2----|
 B|-0-----0-----1-----1----|-3-----3-----3----------|----0-----0-----0-----0-|
 G|----0-----0-----0-----0-|----0-----0-------------|------------------------|
 D|------------------------|------------------------|-2-----2-----0-----0----|
 A|-------------0-----0----|-2-----2-----2----------|------------------------|
 E|-3-----3----------------|------------------------|------------------------|

 e|-0-----0----------------|-------------------0----|-------------------3--2-|
 B|-------------3----------|-1-----1-----1--------3-|-3-----0-----0----------|
 G|----0-----0-------------|-2-----2-----2----------|-4-----0-----0----------|
 D|------------------------|----0-----0-----0-------|----0-----0-----0-------|
 A|-3-----3-----2----------|------------------------|------------------------|
 E|------------------------|------------------------|------------------------|

 e|----0-------------------|-----------------------||
 B|----------3-----1-----0-|-0--1--2--3------------||
 G|------------------------|-0-----------2--------*||
 D|------------------------|-------------0--------*||
 A|-3-----2-----0----------|-----------------------||
 E|-------------------3----|-----------------------||

 e|-------2-----------2----|----3-------------------|-------2-----------2----|
 B|----1-----1-----1-----1-|----------3-----0-----3-|----1-----1-----1-----1-|
 G|------------------------|-0-----0-----0-----0----|------------------------|
 D|-0-----------0----------|------------------------|-0-----------0----------|
 A|------------------------|------------------------|------------------------|
 E|------------------------|------------------------|------------------------|

 e|----3-------------------|-------0----------------|-------2-----------3----|
 B|----------3-----0-----3-|-------------------3----|----1-----------0-------|
 G|-0-----0-----0-----0----|----0-----------0-------|------------------------|
 D|------------------------|------------------------|-0--------0--2--------2-|
 A|------------------------|-3--------3--2--------2-|------------------------|
 E|------------------------|------------------------|------------------------|

 e|----0-------------------|-----------------------||
 B|-------1-----0--3--1----|----0------------------||
 G|----------2-----------2-|----------------------*||
 D|-------------0-----0----|-------0--------------*||
 A|-3----------------------|----------2------------||
 E|------------------------|-3-----------3---------||
Suggest correction
Give kudos to tab author, rate the tab!
1 2 3 4 5
comments
print report bad tab
guest
Wanna post a correction for this tab? Suggest correction