Oops, an error
Loading. Please wait.

Carulli - Lento In E Minor Tab

303 views 1 this week
no commentswrite comment
1 2 3 4 5
1 last vote to show rating
add to favorites
launch autoscroll
font size
0
reset
how to read this tab
guitar tuner
×
Best way to learn
"Carulli - Lento In E Minor"
Autoscroll
slow
fast
+/-
esc
set tempo
stop
PRIMERA PARTE

e -0-----------0-----0-----------0-----2-----3-----2-----3-----2-----0-----
B ----0-----0-----0-----0-----0-----0-----0-----0-----0-----0-----0-----0--
G -------0-----------------0-----------------------------------------------
D -2-----------------2-----------------1-----------------2-----------------
A -------------------------------------------------------------------------
E -------------------------------------------------------------------------


e -0-----------0-----0-----------0-----2-----3-----2-----0--
B ----0-----0-----0-----0-----0-----0-----0-----0-----0--0--
G -------0-----------------0-----------------------------0--
D -2-----------------2-----------------1-----------1-----2--
A ----------------------------------------------------------
E ----------------------------------------------------------


e -0-----------0-----0-----------0-----2-----3-----2-----3-----2-----0-----
B ----0-----0-----0-----0-----0-----0-----0-----0-----0-----0-----0-----0--
G -------0-----------------0-----------------------------------------------
D -2-----------------2-----------------1-----------------2-----------------
A -------------------------------------------------------------------------
E -------------------------------------------------------------------------


e -0-----------0-----0-----------0-----2-----3-----2-----0--|
B ----0-----0-----0-----0-----0-----0-----0-----0-----0--0--|
G -------0-----------------0-----------------------------0--|
D -2-----------------2-----------------1-----------1-----2--|
A ----------------------------------------------------------|
E ----------------------------------------------------------|


SEGUNDA PARTE

e -------------------------------0-----2-----3----2-----3-----2-----0-----
B ----0-----0-----0-----0-----0-----0-----0----0-----0-----0-----0-----0--
G -------------------------0----------------------------------------------
D -1-----------1-----2-----------------1----------------2-----------------
A -------2----------------------------------------------------------------
E ------------------------------------------------------------------------


e -------------------------------------0-----2-----3-----2-----0--
B ----0-----0-----0-----0-----0-----0-----0-----0-----0-----0--0--
G -------------------------0-----0-----------------------------0--
D -1-----------1-----2-----------------------1-----------------2--
A -------2-----------------------------------------------------2--
E -------------------------------------------------------------0--


e -------------------------------0-----2-----3----2-----3-----2-----0-----
B ----0-----0-----0-----0-----0-----0-----0----0-----0-----0-----0-----0--
G -------------------------0----------------------------------------------
D -1-----------1-----2-----------------1----------------2-----------------
A -------2----------------------------------------------------------------
E ------------------------------------------------------------------------


e -------------------------------------0-----2-----3-----2-----0--||
B ----0-----0-----0-----0-----0-----0-----0-----0-----0-----0--0--||
G -------------------------0-----0-----------------------------0--||
D -1-----------1-----2-----------------------1-----------------2--||
A -------2-----------------------------------------------------2--||
E -------------------------------------------------------------0--||
Suggest correction
Give kudos to tab author, rate the tab!
1 2 3 4 5
comments
print report bad tab
guest
You may want to rate the tab now too:
select rating
Wanna post a correction for this tab? Suggest correction