Oops, an error
Loading. Please wait.

Carulli - L´amour Tab

160 views 1 this week
no commentswrite comment
1 2 3 4 5
3 more votes to show rating
add to favorites
launch autoscroll
font size
0
reset
how to read this tab
guitar tuner
Autoscroll
slow
fast
+/-
esc
set tempo
stop
Help us to improve Ultimate-Guitar.com Take our survey!
×
6/8

e.--0--1-0------0---/-------------/-----0--1--3--5--/--------------
B.--1--------3----3-/--1/-/1---2--/-3------3--------/--1--3-1--0---
G.--0--------0------/--2/-/2---3--/-2---2--2--------/--------------
D.-----------3------/--2/-/2---5--/-3---2--0--2--3--/--2-------0---
A.--3--------2------/--0/-/0------/-----------------/--------------
E.------------------/-------------/-----------------/--3-------3---

e.--0--1-0--2-------/--3--5-3--5--5--/--7--10*--8*--5---8*--7*-----
B.--1-------0---0---/--0-------7--7--/--8-----------7--------------
G.--0-----------2---/--0-------7--7--/--0--------------------------
D.----------1---1---/--2-------0--0--/--------------0--------------
A.--3-------2---2---/----------------/-----------------------------
E.------------------/----------------/-----------------------------


e.--5-----3--/-------0--------------------/--3-----------3---0-------
B.--1-----0--/--3--------3---0-------0----/----------------------1---
G.--0--------/-----0---0---0---0---0---0--/----0---0---0---0---0---0-
D.-----0-----/--3----3---3---3---3---3----/--2---2---2---2---2---2---
A.-----------/----------------------------/--------------------------
E.--------3--/----------------------------/--------------------------


e.-----0-------------------/-3-----------3---0--------/-
B.-3-------3---0-------0---/----------------------1---/-
G.---0---0---0---0---0---0-/---0---0---0---0----0---0-/-
D.-3---3---3---3---3---3---/-2---2---2---2----2---2---/-
A.-------------------------/--------------------------/-
E.-------------------------/--------------------------/-


e.-5------3------/--1---0------/----0---1-----------/-----------0----
B.---------------/--0---1---2--/-3-----------1----0-/-1------3-----3-
G.---------------/--1---2---3--/-2------------------/-----------0----
D.-3---0--2------/--0-------5--/-3-----------2----0-/-2------3-----3-
A.---4------2--3-/------3------/--------------------/-3-3--3-3--3--3-
E.---------------/----------0--/-1-----------3----3-/----------------


e.------------0----/--------0--------0-/-----------------/--------
B.-1-------3-----3-/--1--------1-------/-1-------1-------/-1.-----
G.------------0----/--------0--------0-/-----------------/--------
D.-2-------3-----3-/--2--------2-------/-2-------2-------/-2.-----
A.-3-3--3--3--3--3-/--3--3--3--3--3--3-/-3-------3-------/-3.-----
E.-----------------/-------------------/----3--0----3--0-/--------
Suggest correction
Give kudos to tab author, rate the tab!
1 2 3 4 5
comments
print report bad tab
guest
You may want to rate the tab now too:
select rating
Wanna post a correction for this tab? Suggest correction