Oops, an error
Loading. Please wait.

Carulli - Prelude In A Minor Tab

320 views 1 this week
no commentswrite comment
1 2 3 4 5
2 more votes to show rating
add to favorites
launch autoscroll
font size
0
reset
how to read this tab
guitar tuner
×
Best way to learn
"Carulli - Prelude In A Minor"
Autoscroll
slow
fast
+/-
esc
set tempo
stop
Excelente para practicar arpegios
Velocidad moderada


e -----0------0------0------0------0------0------0------0------0------0------0------0--
B ---1------1------1------1------0------0------0------0------3------3------3------3----
G --------2-------------2-------------1-------------1-------------0-------------0------
D -------------------------------------------------------------------------------------
A -0-------------0---------------------------------------------------------------------
E -----------------------------0-------------0-------------0-------------0-------------


e -----0------0------0------0------3------3------3------3------1------1------1------1--
B ---1------1------1------1------2------2------2------2------3------3------3------3----
G --------2-------------2-------------2-------------2-------------2-------------2------
D ---------------------------------------------------------0-------------0-------------
A -0-------------0-------------0-------------0-----------------------------------------
E -------------------------------------------------------------------------------------


e -----0------0------0------0------0------0------0------0-----0-----0-------0------0---
B ---1------1------0------0------1------1------1------1-----1-----1------1-------1-----
G --------2-------------0-------------2-------------2-----------0--------------0-------
D -2-----------------------------------------------------------------------------------
A -----------------------------0-------------0------------3------------3---------------
E ---------------0---------------------------------------------------------------------


e -----1------1------1------1------1-------1------1------1------0------0------0------0-
B ---0------0------0------0------0-------0------0------0------1------1------1------1---
G --------0-------------0--------------0-------------0-------------0-------------0-----
D -0-------------0---------------------------------------------------------------------
A ----------------------------------------------------------3-------------3------------
E -----------------------------3--------------3----------------------------------------


e -----3------3------3------3------1------1-------------1------0------0------1------1--
B ---1------1------1------1------3------3--------1----3------1------1------0------0----
G --------0-------------0-------------2--------3----2-------------0-------------0------
D -2-------------2-------------3-------------3-----------------------------------------
A -------------------------------------------------------------------------------------
E ---------------------------------------------------------3-------------3-------------


e -0-1-0-----------------0------0------0------0------0------0------0------0--
B -------3---0---------1------1------1------1------0------0------0------0----
G -------------2-1----------2-------------2-------------1-------------1------
D ---------------------------------------------------------------------------
A -3-----------------0-------------0-----------------------------------------
E -----------------------------------------------0-------------0-------------


e -----0------0------0------0------0------0------0------0------3------3------3------3--
B ---3------3------3------3------1------1------1------1------2------2------2------2----
G --------1-------------1-------------2-------------2-------------2-------------2------
D -------------------------------------------------------------------------------------
A -----------------------------0-------------0-------------0-------------0-------------
E -0-------------0---------------------------------------------------------------------


e -----1------1------1------1------0------0------0------0------0------0------||
B ---3------3------3------3------1------1------0------0------1------1--------||
G --------2-------------2-------------0-------------1-------------2----------||
D -0-------------0-------------2---------------------------------------------||
A ---------------------------------------------------------0-------------0---||
E -------------------------------------------0-------------------------------||
Suggest correction
Give kudos to tab author, rate the tab!
1 2 3 4 5
comments
print report bad tab
guest
You may want to rate the tab now too:
select rating
Wanna post a correction for this tab? Suggest correction