Oops, an error
Loading. Please wait.

Carulli - Vals Allegretto Tab

255 views 3 this week
no commentswrite comment
1 2 3 4 5
3 more votes to show rating
add to favorites
launch autoscroll
font size
0
reset
how to read this tab
guitar tuner
×
Best way to learn
"Carulli - Vals Allegretto"
Autoscroll
slow
fast
+/-
esc
set tempo
stop
3/8

e.--//--0-------0---/--0-------0---/-2---3---2---/-3---2---3---/--0-------0---/-0-------0-----
B.--//----0---0---0-/----0---0---0-/---0---0---0-/---0---0---0-/----0---0---0-/---0---0---0---
G.--//.-----0-------/------0-------/-------------/-------------/------0-------/-----0---------
D.--//.-------------/--2-----------/-1-----------/-2-----------/--2-----------/-2-------------
A.--//--------------/--------------/-------------/-------------/--------------/---------------
E.--//--------------/--------------/-------------/-------------/--------------/---------------


e.-2---3---2---/-0--//----------------/----------0---/-2---3---2---/-3---2---3---/-------------
B.---0---0---0-/-0--//----0----0----0-/----0---0---0-/---0---0---0-/---0---0---0-/---0---0---0-
G.-------------/-0-.//.---------------/------0-------/-------------/-------------/-------------
D.-1-----------/-2-.//.-1---------1---/--2-----------/-1-----------/-2-----------/-1-------1---
A.-------------/----//-------2--------/--------------/-------------/-------------/-----2-------
E.-------------/----//----------------/--------------/-------------/-------------/-------------


e.---------0---/-2---3---2---/-0--//----------/-------------/-------------/----------------
B.---0---0---0-/---0---0---0-/-0--//--0--0--1-/-3-------3---/-1-------1---/-0-------0------
G.-----0-------/-------------/-0-.//.-0--0--2-/---4---4---4-/---2---2---2-/---0---0---0----
D.-2-----------/-------------/-2-.//.---------/-----0-------/-----0-------/-----0----------
A.-------------/-1-----------/----//--3-------/-------------/-------------/----------------
E.-------------/-------------/----//----------/-------------/-------------/----------------


e.---------/-------------/-------------/-----//--------0---/-2---2---3---/--------------
B.-0--0--1-/-3-------3---/-1-------1---/-----//3---3---2---/-1---1---0---/-1-------1----
G.-0--0--2-/---4---4---4-/---2---2---2-/-0--.//.-----------/-------------/---2---2---2--
D.---------/-----0-------/-----0-------/----.//.-0---0---0-/---0---0---0-/-----0--------
A.-3-------/-------------/-------------/-----//------------/-------------/--------------
E.---------/-------------/-------------/-3---//------------/-------------/--------------


e.--------------/----------0---/--2---2---3---/-------------/-------/./--
B.--0-------0---/--3---3---2---/--1---1---0---/-1-------1---/-------/./--
G.----0---0---0-/--------------/--------------/---2---2---2-/--0---././--
D.------0-------/----0---0---0-/----0---0---0-/-----0-------/------././--
A.--------------/--------------/--------------/-------------/-------/./--
E.--------------/--------------/--------------/-------------/--3----/./--

Para lograr tocar esta pieza se necesita tener una exelente agilidad
ya que se requiere una gran velocidad, practiquen un poco.

Dudas  aclaraci*nes, gracias, se aceptan: j*yas, rel*jes diner*, 
tarjetas de credit* y chicles masticad*s.
Suggest correction
Give kudos to tab author, rate the tab!
1 2 3 4 5
comments
print report bad tab
guest
You may want to rate the tab now too:
select rating
Wanna post a correction for this tab? Suggest correction