Oops, an error
Loading. Please wait.

Carulli - Valse Tab

248 views 1 this week
no commentswrite comment
1 2 3 4 5
3 more votes to show rating
add to favorites
launch autoscroll
font size
0
reset
how to read this tab
guitar tuner
×
Best way to learn
"Carulli - Valse"
Autoscroll
slow
fast
+/-
esc
set tempo
stop
Se toca a ritmo 3/4 (un bajo y dos rasgueos)

PRIMERA PARTE

e ----0--0-----1--1-----0--0--------------0--0-----1--1--------------
B ----1--1-----0--0-----1--1--3--0--------1--1-----0--0--------0--1--
G ----------------------------------0--------------------0--2--------
D ----------0-----------------------------------0--------------------
A -3-----------------3-----------------3--------------------------3--
E -------------------------------------------------------------------


e ----0--0-----1--1-----0--0--------------0--0-----1--1--------------|
B ----1--1-----0--0-----1--1--3--0--------1--1-----0--0--------0--1--|
G ----------------------------------0--------------------0--2--------|
D ----------0-----------------------------------0--------------------|
A -3-----------------3-----------------3--------------------------3--|
E -------------------------------------------------------------------|


SEGUNDA PARTE

e ---------------------1--1-----0--0--------------------1-----------
B ----0--0----1--1-----0--0-----1--1-----0--0-----1--1-----3--0--1--
G ----0--0----0--0-----------------------0--0-----0--0--------------
D -3--------2-------0-----------------3--------2--------0-----------
A ---------------------------3-----------------------------------3--
E ------------------------------------------------------------------


e ---------------------1--1-----0--0--------------------1-----------|
B ----0--0----1--1-----0--0-----1--1-----0--0-----1--1-----3--0--1--|
G ----0--0----0--0-----------------------0--0-----0--0--------------|
D -3--------2-------0-----------------3--------2--------0-----------|
A ---------------------------3-----------------------------------3--|
E ------------------------------------------------------------------|


TERCERA PARTE

e -------0---------0--------------------------0--------0--------------|
B ----1---------1-----3--1--0--1--0--1-----1--------1-----3--1--0-----|
G -2--------2---------------------------2--------2-----------------2--|
D --------------------------------------------------------------------|
A -0--------0------------------0--------0--------0-----------------0--|
E --------------------0-----------------------------------0-----------|


FINAL

e ----0--0-----1--1-----0--0--------------0--0-----1--1--------------------
B ----1--1-----0--0-----1--1--3--0--------1--1-----0--0--------0--1--------
G ----------------------------------0--------------------0--2--------0-----
D ----------0-----------------------------------0-----------------------2--
A -3-----------------3-----------------3--------------------------3--------
E -------------------------------------------------------------------------

e ----------------------1--1-----0--0--------------------1-----------||
B ----0--0-----1--1-----0--0-----1--1-----0--0-----1--1-----3-----1--||
G ----0--0-----0--0-----------------------0--0-----0--0--------4-----||
D -3--------2--------0-----------------3--------2--------0-----------||
A ----------------------------3-----------------------------------3--||
E -------------------------------------------------------------------||
Suggest correction
Give kudos to tab author, rate the tab!
1 2 3 4 5
comments
print report bad tab
guest
You may want to rate the tab now too:
select rating
Wanna post a correction for this tab? Suggest correction