Oops, an error
Loading. Please wait.

Choro Tab

version 2
version 2

Whole song

83 views 1 this week
no commentswrite comment
1 2 3 4 5
1 last vote to show rating
add to favorites
launch autoscroll
font size
0
reset
how to read this tab
guitar tuner
×
Best way to learn
"Choro"
Autoscroll
slow
fast
+/-
esc
set tempo
stop
||--------3--|--2--2-----------3--|--2--0--------------|-------------------|----
||-----5-----|--2--2--------4-----|--0--0-----------1--|--0--0-------------|----
||--4--------|--3--3-----4--------|--0--0--------0-----|--2--2-------------|----
||-----------|--------------------|-----------2--------|--1--1--------1/5--|----
||-----------|--------2-----------|--------------------|-----------0-------|----
||-----------|--2-----------------|--0-----3-----------|--2-----2----------|----
                                                                                

                                                                                
---------------3--|--2--2-----------3--|--2--0--------0-----|-------------------
---0--------5-----|--2--2--------4-----|--0--0-----0-----3--|-------------------
---0-----4--------|--3--3-----4--------|--0--0--------------|-------------------
4--2--------------|--------------------|--------------------|-------------------
------------------|--------2-----------|--------2-----------|-------------------
0-----0-----------|--2-----------------|--0-----------------|-------------------
                                                                                

                                                                                
------------0--3--|--2--0--0--3/7--|--7--5--7--5--10--7--|----------------------
3--3-----2--------|--2--2----------|--7--7--7--7---------|----------------------
0--0--------------|--0--0----------|--5--5--5--5---------|----------------------
2--2--------------|----------------|---------------------|----------------------
0-----0-----------|--0-------------|--5--------5---------|----------------------
------------------|----------------|---------------------|----------------------
                                                                                

                                                                                
5--3--------------|--5--3--5--3--8--5--|--3--1--------------|-------------------
3--3--------------|--5--5--5--5--------|--1--1--------------|-------------------
4--4--------------|--3--3--3--3--------|--2--2--------------|-------------------
------------------|--------------------|--------------------|-------------------
---------6--5--4--|--3--------3--------|--------3--4--3--2--|-------------------
3--3--3-----------|--------------------|--1--1--------------|-------------------
                                                                                

                                                                                
3--1--0--1--3--4--|--5p0-------------------|--------2--3--2----------|----------
3--3--1--3--3-----|-------1----------------|-----2--------2--5p2-----|----------
1--1--0--1--1-----|----------2-------------|--3-----------3-------2--|----------
------------------|-------------2----------|-------------------------|----------
1--------1--------|--0-------------3p0-----|-------------------------|----------
------------------|---------------------3--|--2-----------2----------|----------
                                                                                

                                                                                
--------------7--------3--|--2--2-----------3--|--2--0--------------|-----------
4--0--4/7--7--------5-----|--2--2--------4-----|--0--0-----------1--|-----------
2----------------4--------|--3--3-----4--------|--0--0--------0-----|-----------
4-------------------------|--------------------|-----------2--------|-----------
2-------------------------|--------2-----------|--------------------|-----------
--------------------------|--2-----------------|--0-----3-----------|-----------
                                                                                

                                                                                
-----------------|-----------------3--|--2--2-----------3--|--------------------
0--0-------------|-----0--------5-----|--2--2--------4-----|--------------------
2--2-------------|-----0-----4--------|--3--3-----4--------|--------------------
1--1--------1/5--|--4--2--------------|--------------------|--------------------
---------0-------|--------------------|--------2-----------|--------------------
2-----2----------|--0-----0-----------|--2-----------------|--------------------
                                                                                

                                                                                
2--0--------0-----|--------------0--3--|--2--0--0--3/7--|-----------------------
0--0-----0-----3--|--3--3-----2--------|--2--2----------|-----------------------
0--0--------------|--0--0--------------|--0--0----------|-----------------------
------------------|--2--2--------------|----------------|-----------------------
------2-----------|--0-----0-----------|--0-------------|-----------------------
0-----------------|--------------------|----------------|-----------------------
                                                                                

                                                                                
7--5--7--5--3--5--|--3--5--3--3--1--3--|--1--3--1--3--1--3--|-------------------
7--7--7--3--3--3--|--5--5--5--1--1--1--|--3--3--3--3--3--3--|-------------------
5--5--5--4--4--4--|--3--3--3--2--2--2--|--1--1--1--1--1--1--|-------------------
------------------|--------------------|--------------------|-------------------
5-----------------|--3-----------------|--1--------1--------|-------------------
---------3--------|-----------1--------|--------------------|-------------------
                                                                                

                                                                                
0--3--0--3--0--3--|--0--2--0--2--0--2--|--3p0-------------------|---------------
2--2--2--2--2--2--|--1--1--1--1--1--1--|--0----0----------------|---------------
0--0--0--0--0--0--|--0--0--0--0--0--0--|--0-------0-------------|---------------
------------------|--------------------|--2----------2----------|---------------
1--------1--------|--1--------1--------|--2-------------2-------|---------------
------------------|--------------------|-------------------3p0--|---------------
                                                                                

                                 Harm.                                          
------2--------2--5-----|--0------12--||
---2-----5--4--------4--|-----0---12--||
3-----------2-----------|-----0---12--||
------------4-----------|-------------||
------------2-----------|-------------||
2-----------------------|--0----------||
Suggest correction
Give kudos to tab author, rate the tab!
1 2 3 4 5
comments
print report bad tab
guest
You may want to rate the tab now too:
select rating
Wanna post a correction for this tab? Suggest correction