Oops, an error
Loading. Please wait.

Concierto De Aranjuez - 2 Tab

2,144 views 18 this week
no commentswrite comment
1 2 3 4 5
x 4
add to favorites
launch autoscroll
font size
0
reset
how to read this tab
guitar tuner
×
Best way to learn
"Concierto De Aranjuez - 2"
Autoscroll
slow
fast
+/-
esc
set tempo
stop
CONCIERTO DE ARANJUEZ - (Movement 2) ADAGIO

De: Joaquin Rodrigo


Afinacion  = EADGBE


  F7==========================  H5= 
F7=============================

E|-^7--^7--^7--^7-|-^7--^7--^7--^7-|-^7--^7--^7--^7-|-^7--^7--^7--^7-|
B|-^7--^7--^7--^7-|-^7--^7--^7--^5-|-^7--^7--^7--^7-|-^8--^8--^8--^8-|
G|-^7--^7--^7--^7-|-^7--^7--^7--^6-|-^7--^7--^7--^7-|-^9--^9--^9--^9-|
D|-^9--^9--^9--^9-|-^9--^9--^9--^5-|-^9--^9--^9--^9-|-^9--^9--^9--^9-|
A|-^9--^9--^9--^9-|-^9--^9--^9--^0-|-^9--^9--^9--^9-|-^7--^7--^7--^7-|
E|-^7--^7--^7--^7-|-^7--^7--^7--^0-|-^7--^7--^7--^7-|-^0--^0--^0--^0-|
 [1]              [2]              [3]              [4]


 F2===============================

|-^3--^3--^2--^2--|-^2--^2--^2--^2--|
|-^2--^2--^2--^2--|-^5--^3--^2--^3--|
|-^3--^3--^3--^3--|-^4--^4--^4--^4--|
|-^2--^2--^2--^2--|-^4--^4--^4--^4--|
|-^2--^2--^2--^2--|-^2--^2--^2--^2--|
|-^2--^2--^2--^2--|-----------------|
[5]               [6]


|-------------------------------------------|
|-7-5-7--8-7-5-7-5-7---7-7-8-10-10-12-10-8--|
|-------------------------------------------|
|-------------------------------------------|
|-------------------------------------------|
|-------------------------------------------|
[7]


|----------------------------------------------7-7-7-9-|
|-7-5-7--8-7-5-7-8-7-5--7--8-7-5-7--7-7-7-8-10---------|
|------------------------------------------------------|
|------------------------------------------------------|
|------------------------------------------------------|
|------------------------------------------------------|
[8]


|-9-5-------------------------------------------------------|
|---5-8-8-7-7-5-5---5--7-5-5---7-5--5---7-7-----------------|
|---0-------------7-------7--------7--------7-6-7-7-9-6-6-4-|
|-----------------------------------------------------------|
|-----------------------------------------------------------|
|---3-------------------------------------------------------|
[9]


|-----------------------------------|--------|
|-----------------------------------|--------|
|-6-4-6--7-6-4-6--4-6---6-6-7-9-7-6-|-6------|
|-----------------------------------|---9-9--|
|-----------------------------------|--------|
|-----------------------------------|--------|
[10]                                [11]


 F3=====           F2=============

|-^3--^3--^2--^0--|-^2--^2--^2--^2--|-^0--^0--^0--^0--|
|-^3--^3--^0--^3--|-^2--^2--^5--^3--|-^0--^0--^3--^2--|
|-^4--^4--^4--^4--|-^2--^2--^2--^2--|-^0--^0--^0--^0--|
|-^5--^5--^0--^0--|-^4--^4--^2--^2--|-^2--^2--^2--^2--|
|-^5--^5--^5--^5--|-^4--^4--^4--^4--|-^2--^2--^2--^2--|
|-^3--^3--^3--^3--|-^2--^2--^2--^2--|-^0--^0--^0--^0--|
[12]              [13]              [14]


           F2=====================

|-^2--^2--^3--^2--|-^2--^2--^2--^2----|
|-^0--^0--^2--^2--|-^5--^3--^2--^3----|
|-^4--^4--^3--^3--|-^4--^4--^4--^4----|
|-^4--^4--^2--^2--|-^4--^4--^4--^4----|
|-^5--^4--^2--^2--|-^2--^2--^2--^2----|
|---------^2--^2--|-------------------|
[15]              [16]


|-^7-5-7--9-7-5-7-9-7-5--7-9-7-5-7----7-7-9-10-12-10-12-10-12-10-9-|
|-^0---------------------------------------------------------------|
|------------------------------------------------------------------|
|-^0---------------------------------------------------------------|
|------------------------------------------------------------------|
|-^3---------------------------------------------------------------|
[17]

|-9---------------------------------------------9-9-7-7-----------------7-|
|---10-8-10--12-10-8-10-12--10-8-10--12-10-8-10---------10-10-8-8-10-10---|
|-------------------------------------------------------------------------|
|-------------------------------------------------------------------------|
|-------------------------------------------------------------------------|
|-------------------------------------------------------------------------|
[18]

|9-7-9-7-5-7-5-7-7-5-3-2--5-3-5-3-2-3-2-3-3-2-----------------------------|
|---------------------------------------------5-3--5-7-5-3-5--7-5-3-5-7-8-|
|-------------------------------------------------------------------------|
|-------------------------------------------------------------------------|
|-------------------------------------------------------------------------|
[19]


|-----|------------------------------------------------|
|-7-8-|-7-8-10-8-7-------7-8-7-------------------------|
|-----|------------9-7-9-------------------------------|
|-----|------------------------9-9-9--9-9-9--9-9-9-9-9-|
|-----|------------------------------------------------|
|-----|------------------------------------------------|
      [20]

|------------------------7-9-10-12-10-9----------------------|
|-----------------7-8-10----------------12-10-8--------------|
|-6-7-9--7-9--7-9-------------------------------11-9-7-9-7-6-|
|------------------------------------------------------------|
|------------------------------------------------------------|
|------------------------------------------------------------|
[21]


|------------|
|------------|
|-6----------|
|---9-9------|
|------------|
|------------|
[22]


.......2 Barra orquestal
 F2=============

|-^2--^2--^2--^2--|
|-^2--^2--^2--^2--|
|-^3--^3--^3--^3--|
|-^4--^4--^4--^4--|
|-^4--^4--^4--^4--|
|-^2--^2--^2--^2--|
[25]


|-14-12-11-11--11----11-12-14-12-11-11-12-14-15-17-15-14-12-14----|
|-----------------14----------------------------------------------|
|-----------------------------------------------------------------|
|-----------------------------------------------------------------|
|-----------------------------------------------------------------|
|-----------------------------------------------------------------|
[26]


|-15-14-12-14-15-14-12-14-15-14-12-14-15-14-12-14-15-14-12-14-15-12-14-|
|----------------------------------------------------------------------|
|----------------------------------------------------------------------|
|----------------------------------------------------------------------|
|----------------------------------------------------------------------|
|----------------------------------------------------------------------|
[27]


|-15-14-12-14-15-14-12-14-15-12-14-15-14-12-14--12-14-12-11-|-12--0--0--0-|
|-----------------------------------------------------------|--9--0--0--0-|
|-----------------------------------------------------------|--9--1--1--1-|
|-----------------------------------------------------------|--9--0--0--0-|
|-----------------------------------------------------------|-11--2--2--2-|
|-----------------------------------------------------------|--0--0--0--0-|
                                                           
[28]


|-12-10-9-9-----9-10-12-10-9-9-10-12-13-15-13-12----12--|
|--8---------12----------------------------------15-----|
|--0----------------------------------------------------|
|-------------------------------------------------------|
|--0----------------------------------------------------|
|-------------------------------------------------------|
[29]


|13-12-10-12-13-12-10-12-13-12-10-12-13-12-10-12-13-12-10-12-13-12-10-12-|
|------------------------------------------------------------------------|
|------------------------------------------------------------------------|
|------------------------------------------------------------------------|
|------------------------------------------------------------------------|
|------------------------------------------------------------------------|
[30]


|-13-12-10-12-13-12-10-12-13-12-10-12-13-12-10-12---10-12-10-9--|-10-----|
|---------------------------------------------------------------|-10-----|
|---------------------------------------------------------------|-10-----|
|---------------------------------------------------------------|--0-----|
|---------------------------------------------------------------|--------|
|---------------------------------------------------------------|--------|
                                                            
   [31]


                  F5=== F2==                                
 F3=

|-5-3-2-2---0-2-3-5-----2-----------------|--------------------------|
|---------1---------8-7---4-3-3-1---------|-----------------3-3------|
|-5-------2-------5-----3-----0---3-3-2-0-|-------2-3-5-3-5-3-3------|
|-0---------------------------------1-----|-4-5-7-4-5-7-5-7----------|
|-----------------6-----3-----0-----------|-5-----3------------------|
|-----------------------------------2-----|-0-----------------3------|
[32]                                      [33]


                     F10===== F8====       F5===            
      F3=

|-10-8-7-7-----------10--------------------------|-----------------3-3-|
|-----------10-12-13----13-12-12-9-8-8-6---------|-------3-4-6-4-6-4-4-|
|--------------------10--------8-----5---8-8-7-5-|-4-5-7-4-5-7-5-7-----|
|------------------------------------0-----6-----|-5-----3-------------|
|--------------------11--------8-----------------|-------------------3-|
|------------------------------------------7-----|---------------------|
[34]                                             [35]


...........1 Barra orquestal


|--------^0--^0--------------0---|--------^0--^0------------|
|--------^0--^0--------------5---|--------^0--^0------------|
|--------^0--^0--------------5---|--------^0--^0------------|
|--------^2--^2--------------4---|--------^2--^2--------2-4-|
|-2-0-2--^2--^2--2-3-5-5-5-5-5-3-|-2-0-2--^2--^2--2-3-5-----|
|--------^0--^0--------------0---|--------^0--^0------------|
[37]                             [38]


|--------------------^0----------------------|--------^0--^0------------|
|--------------------^1----------------------|--------^4--^4------------|
|--------------------^0----------------------|--------^2--^2------------|
|-4-0----------------^2----------------------|--------^2--^2------------|
|-----3-3-2-2-0---0--^2--2-----------0-------|--------^3--^3------------|
|---------------3----^0----3-3-2-3-3---2-2-0-|-2-0-2--^2--^2--2-3-5-3-2-|
[39]                                         [40]


|-----^0--^0----------------------|--------^0--^0-----------------|
|-----^4--^4----------------------|--------^0--^0-----------------|
|-----^0--^0----------------------|--------^0--^0-----------------|
|-----^2--^2--------------------0-|-2-0-2--^2--^2--2-2-4-5-5-5-4--|
|-----^2--^2------------0-2-3-3---|--------^3--^3-----------------|
|-2-0-^0--^0--0-0-2-3-5-----------|--------^0--^0-----------------|
[41]                              [42]


|--------^0--^0-------------|---------------------------------------|
|--------^3--^3-------------|---------------------------------------|
|--------^4--^4-------------|---------------------------------------|
|--------^4--^4--4--2-0---0-|-2-4-2-0-2-0-------0-------------------|
|-5-3-5--^2--^2---------3---|-------------3-2-3---3-2-3-2-0---0-2-3-|
|--------^0--^0-------------|-------------------------------3-------|
[43]                        [44]


|-----------------|----^0-----------^0------|-----^0------|
|-----------------|----^4-----------^4------|-----^4------|
|-----------------|----^0-----------^0------|-----^0------|
|-----------------|----^4-----------^4------|-----^2------|
|-2-3-2-0---0-2-3-|-2--^2--------0--^3------|-----^2------|
|---------3-------|----^0--0-2-3----^0--3-2-|-2-0-^0------|
[45]              [46]                      [47]


|--------------------------------------------------------10-12-13-12-10--|
|----------------------------------------5-7-9-10-12-13------------------|
|----------------------------------4-5-7---------------------------------|
|------2tr3----------------2-4-6-7---------------------------------------|
|--------------------2-3-5-----------------------------------------------|
|------------0-2-4-5-----------------------------------------------------|
[48]


|-12-13-12-10-12-13-12-10-12-13-12-10-12-13-12-10-12-10-12-10-12-10-9-10-|
|------------------------------------------------------------------------|
|------------------------------------------------------------------------|
|------------------------------------------------------------------------|
|------------------------------------------------------------------------|
|------------------------------------------------------------------------|
[49]


|-------|------------------------------------------------8-10-11-10-8----|
|-------|--------------------------------------7-8-10-11-----------------|
|-------|--------------------------------5-7-9---------------------------|
|--0tr1-|-0------------------------5-7-8---------------------------------|
|-------|--3-1-0-----------3-5-7-9---------------------------------------|
|-------|---------3-2-3-5-6----------------------------------------------|
[50]     [51]


|-10-11-10-8-10-11-10-8-10-11-10-8-10-11-10-8-10---8-10-8-7-8----|
|----------------------------------------------------------------|
|----------------------------------------------------------------|
|----------------------------------------------------------------|
|----------------------------------------------------------------|
|----------------------------------------------------------------|
[52]


|---------------|-----------------|
|---------------|-----------------|
|---------------|-----------------|
|---------------|-----------------|
|---------------|-----------------|
|----2-3-0-2----|----4-5-2-4------|
[53]            [54]


 F4====================================================

|-------------------------------------------------------|
|-------------------------------------------------------|
|-------------------------------------------------------|
|-----------------4-4-4-----------------4-6-6-4---------|
|-6-4-6-------6-7-------7-6-4-6-----6-7---------7-6-7---|
|-------4-4-4-------------------4-4-------------------4-|
[55]


.....2 Barra oquestal

F4======================================================================

|------------------------------------------------------------------------|
|------------------------------------------------------------------------|
|---------------4-4-4-----------------4-6-6-4---4-4----------------------|
|6-4-6------6-7-------7-6-4-6-----6-7---------7-----7-6-7---------4-6-7-6|
|------------------------------------------------------------------------|
|------4-4-4------------------4-4-------------------------4-4-4-4--------|
[57]


F4======================================================================

|------------------------------------------------------------------------|
|------------------------------------------------------------------------|
|------------------------------------------------------------------------|
|----------4-6-4-----4---------------------------------------------------|
|--------7-------6-7---7---------4-6-7-6-----------4-6-4-----4-----------|
|4-4-4-4-----------------4-4-4-4---------4-4-4-4-7-------5-7---7-4-5-7-5-|
[58]


 F4============================================

|------------------------------------------------------------------------|
|------------------------------------------------------------------------|
|------------------------------------------------------------------------|
|------------------------------------------------------------------------|
|------------4-----------------------4---------0-2-4-2-2-4-6-4-4-6-7-6-6-|
|4-4-4-4-5-7---7-4-5-7-5-4-4-4-4-5-7---7-4-5-7---------------------------|
[59]


                         
F4========================================

|-------------------------------------|--------------------------------|
|-------------------------------------|---------------4-5-5-5-4--------|
|-------------------------4-----4-6-4-|-6-4-6-------6-4-6-6-6-4-6-6-6--|
|-2-4-2-2-4-6-4-4-6-7-6-6---7-7-------|-7---7-------7-----------7---7--|
|-------------------------------------|--------------------------------|
|-------------------------------------|-------4-4-4--------------------|
[60]                                  [61]


F4==============================================================

|-------------------------------------------------4-5-5-5-4-------|
|---------4-5-5-----4-4-----5-5-----7-5-7-------7-5-7-7-7-5-7-5-7-|
|-------6-4-6-6-----4-4-----6-6-----8-6-8-------8-----------8-6-8-|
|-------7---------------------------------------------------------|
|-----------------------------------------------------------------|
|-4-4-4---------4-4-----4-4-----4-4-------4-4-4-------------------|
[62]


 F4=================================

|---------------------------4-------|
|-------7---7-7-----5-5-----5---7---|
|-------8---8-8-----6-6---------8---|
|-----------------------------------|
|-----------------------------------|
|-4-4-4---4-----4-4-----4-4---4---4-|
[63]


|--5-----4-----7-----5------9------7------11-------9-------12-------11---|
|7---7-5---5-9---9-7---7-10---10-9---9-12----12-10---10-14----14-12----12|
|------------------------------------------------------------------------|
|------------------------------------------------------------------------|
|------------------------------------------------------------------------|
|------------------------------------------------------------------------|
[64]


|---12--------14----16-14-16-|----------------------------------------|
|14----14--16----16----------|-9-7-9----------------------------------|
|-------------------13-------|----------------------------------------|
|----------------------------|-------6-4-6----------------------------|
|----------------------------|------------------------0-2-4-2-4-2-4---|
|----------------------------|-------------4-2-4---4------------------|
                             [65]


|-0-------------------0-------------------0-------------------0----|
|---2---------------2---2---------------2---2---------------2------|
|-----1-----------1-------1-----------1-------1-----------1--------|
|-------2-------2-----------2-------2-----------2-------2----------|
|---------0---0---------------0---0---------------0---0------------|
|-----------0-------------------0-------------------0--------------|
[66]


|-----------------|12-------------------------12-------------------------|
|-----------------|---14-------------------14----14-------------------14-|
|-----------------|------13-------------13----------13-------------13----|
|-----------------|---------14-------14----------------14-------14-------|
|---------------0-|------------0---0----------------------0---0----------|
|-0-2-4-5-4-5-4---|--------------0--------------------------0------------|
[67]              [68]


|-12-------------------------12---|-|
|----14-------------------14------|-|
|-------13-------------13---------|-|
|----------14-------14------------|-|
|-------------0---0---------------|-|
|---------------0-----------------|-|


F4=============================================================

|------------------------------|---------------------------------|
|------------------------------|---------------------------------|
|------------------------------|---------------------------------|
|------------------4---6-------|---------------------------------|
|--6-6-4-6-6-6-7-6---6---6-6-6-|-4-6-4-6---6---6---6-6-6-4-6-6-6-|
|------------------------------|---------7---5---4---------------|
[69]                           [70]


F4=================================================================

|---------------------------------|----------------------------------|
|---------------------------------|----------------------------------|
|---------------------------------|----------------------------------|
|-----4---6-----------------------|-----------------4---6---7--------|
|-7-6---6---6-6-6-4-6-4-6---6---6-|---6-7-6-6-6-7-6---6---6---6-6-6--|
|-------------------------7---5---|-4--------------------------------|
[71]                              [72]


 F4==============================================

|----------------------------------------------|--------------------|
|----------------------------------------------|--------------------|
|----------------------------------------4-----|-6-----8---------8--|
|----------------------7-----7-----7-----------|---------7-----7----|
|-4-6-4-6---6---6----6---6-----6-----6-----6---|---6-------7--------|
|---------7---5----4-------4-----4-----4-----4-|-----4-------9------|
[73]                                           [74]


|-------------------------------|0-------0-------0-------|
|-------------------------------|--2-------2-------2-----|
|-----8-----8-----8-----8-----8-|------1-------1-------1-|
|---7-----7-----7-----7-----7---|------------------------|
|-------------------------------|----2-------2-------2---|
|-9-----9-----7-----5-----4-----|------------------------|
                            [75]            


|-2-------4-------5-0-----------0-----------0-----------0-----|
|---2-------2---------2-------4---4-------4---4-------4---4---|
|-------1-------1-------1---1-------1---1-------1---1-------1-|
|-------------------------------------------------------------|
|-----2-------2-----------4-----------4-----------4-----------|
|-------------------------------------------------------------|


|-------0-----------0-----------0-----|
|-----4---4-------4---4-------4---4---|
|---1-------1---1-------1---1-------1-|
|-------------------------------------|
|-4-----------2-----------0-----------|
|-------------------------------------|
[76]


|-------0-----5-------------------5-|------------------|
|-----4---4-----5---------------5---|5---------------5-|
|---1-------1-----6-----------6-----|--6-----------6---|
|-------------------6-------6-------|----6-------6-----|
|---------------------0---0---------|------0---0-------|
|-4---------------------0-----------|--------0---------|
                                    [77]


|-5-------------------7-------------------9-------------------|
|---5---------------5---5---------------5---9---------------9-|
|-----6-----------6-------6-----------6-------9-----------9---|
|-------6-------6-----------6-------6-----------7-------7-----|
|---------0---0---------------0---0---------------0---0-------|
|-----------0-------------------0-------------------0---------|


|-11---------------------9---------------------7---------------------|
|----10---------------10---10---------------10---10---------------10-|
|-------9-----------9---------9-----------9---------9-----------9----|
|---------9-------9-------------9-------9-------------9-------9------|
|-----------0---0-----------------0---0-----------------0---0--------|
|-------------0---------------------0---------------------0----------|
[78]


|9-------------------|11------------------------12------------------------|
|--10--------------10|---12------------------12----12-------------------12|
|-----9----------9---|------11------------11----------11-------------11---|
|-------9------9-----|---------11------11----------------11-------11------|
|--------0---0-------|-----------0---0----------------------0---0---------|
|----------0---------|-------------0--------------------------0-----------|
                     [79]


|14-----------------------12----------------------|11---------------------|
|---12-----------------12----12-----------------12|---12----------------12|
|------11-----------11----------11-----------11---|------11-----------11--|
|---------11-----11----------------11-----11------|---------11-----11-----|
|-----------0---0--------------------0---0--------|-----------0---0-------|
|-------------0------------------------0----------|-------------0---------|
                                                  [80]


|11----------------------12----------------------14-----------------------|
|--12------------------12--14------------------14---12------------------12|
|-----11------------11--------14------------14---------11------------11---|
|--------11------11--------------14------14---------------11------11------|
|----------0---0-------------------0---0--------------------0---0---------|
|------------0-----------------------0------------------------0-----------|


F11======================================================================

17-17-17-17-16-16-16-16-17-17-17-17-17-17-17-17-16-16-16-16-17-17-17-17-16|
14-14-14-14-14-14-14-14-14-14-14-14-14-14-14-14-14-14-14-14-14-14-14-14-14|
11-11-11-11-11-11-11-11-11-11-11-11-11-11-11-11-11-11-11-11-11-11-11-11-11|
14-14-14-14-14-14-14-14-14-14-14-14-14-14-14-14-14-14-14-14-14-14-14-14-14|
11-11-11-11-11-11-11-11-11-11-11-11-11-11-11-11-11-11-11-11-11-11-11-11-11|
--------------------------------------------------------------------------|
[81]


F11======================================================================

17-17-17-17-16-16-16-16-17-17-17-17-17-17-17-17-16-16-16-16-17-17-17-17-16|
14-14-14-14-14-14-14-14-14-14-14-14-14-14-14-14-14-14-14-14-14-14-14-14-14|
11-11-11-11-11-11-11-11-11-11-11-11-11-11-11-11-11-11-11-11-11-11-11-11-11|
14-14-14-14-14-14-14-14-14-14-14-14-14-14-14-14-14-14-14-14-14-14-14-14-14|
11-11-11-11-11-11-11-11-11-11-11-11-11-11-11-11-11-11-11-11-11-11-11-11-11|
--------------------------------------------------------------------------|
[82]


F11======================================================================

17-17-17-17-16-16-16-16-17-17-17-17-17-17-17-17-16-16-16-16-17-17-17-17-16|
14-14-14-14-14-14-14-14-14-14-14-14-14-14-14-14-14-14-14-14-14-14-14-14-14|
11-11-11-11-11-11-11-11-11-11-11-11-11-11-11-11-11-11-11-11-11-11-11-11-11|
14-14-14-14-14-14-14-14-14-14-14-14-14-14-14-14-14-14-14-14-14-14-14-14-14|
11-11-11-11-11-11-11-11-11-11-11-11-11-11-11-11-11-11-11-11-11-11-11-11-11|
--------------------------------------------------------------------------|
[83]


.........17 Barra orquesta


 F4==========================         F4=========

|-------5-4---------------------------4-----------|
|-----------7-7-------5-4-4-----4-5-7---7-5-5-----|
|-------------------------------------------------|
|-7-6-4-4-----------------------------------6-4---|
|---------------7-6-6-------4-3-3---------------7-|
|-------------------------------------------------|
[92]

 F4====================     F5======== F4================
F6=

|-------------------------|--------------------------------------|
|---4-----------------4-5-|-7-5-7-5---5-4---4-5-7-5-7-5----------|
|-----6-6-------4---------|-5-------8-6---6-----5-------8-6------|
|-----------------6-7-----|-6---------6-------------------6------|
|-7-------6-4-4-----------|-6---------4---------6---------7------|
|-------------------------|---------------------4---------9------|
[93]                      [94]


.........1 Barra Orquestal

|-------12-14--15-14---15-14-15-14-15-14-15-14-15-14-15-14-15-14-|
|-14-15----------------------------------------------------------|
|----------------------------------------------------------------|
|----------------------------------------------------------------|
|----------------------------------------------------------------|
|----------------------------------------------------------------|
[96]


                                  F7==========

|15-14-15-14-15-14-12----|-14---------------11---------------[14]--|
|------------------------|----------------7------------------------|
|------------------------|--------------8-----------------------------|
|------------------------|------------9-------------------------------|
|------------------------|----------9---------------------------------|
|------------------------|--------7-----------------------------------|
                         [97]
Suggest correction
comments
print report bad tab
guest
You may want to rate the tab now too:
select rating
Wanna post a correction for this tab? Suggest correction