Oops, an error
Loading. Please wait.

Contradanza Tab

85 views 1 this week
no commentswrite comment
1 2 3 4 5
3 more votes to show rating
add to favorites
×
Save as Personal and add changes to this tab that will be seen only by you. Learn more ›
×
You can save this tab as Personal to edit and correct it or add notes. All changes will be seen only by you. Learn more »
save as personal
new!
launch autoscroll
font size
0
reset
how to read this tab
guitar tuner
Autoscroll
slow
fast
+/-
esc
set tempo
stop
         Title : Waltz
        Artist : Fernando Ferandiere
Transcribed by : Kevin J. Manges (braumstr@
                                 (fomerly braumeister@      
                                  and kevinm2556@
         Notes : Listen also to the MIDI file on this.
                 This is best viewed in Courier New, 10pt font.
        Updated: 12/15/98 1700
================================================================================

                                  Contradenza                                   


                                                             Fernando Ferandiere
Solo Guitar
Transcribed by Kevin J. Manges 15 Dec 1998


E||------|----------------0--|-------------0--1--|--0--1--3--3--1--0--|
B||------|-------1--1--3-----|-------3--3--------|--------------------|
G||*--0--|-------------------|-------------------|--------------------|
D||*-----|----------2--------|-------------------|-----------2--------|
A||------|--3----------------|----------2--------|--3-----------------|
E||------|-------------------|--3----------------|--------------------|
            3    1  1  4        3    4  4     1     3  1  4  4  1      
                    2                   2                    2         


E|-------------------|----------------0--|-------------0--1--|
B|--3--0-------------|-------1--1--3-----|-------3--3--------|
G|--------0-------0--|-------------------|-------------------|
D|-------------------|----------2--------|-------------------|
A|-------------------|--3----------------|----------2--------|
E|--3--------3-------|-------------------|--3----------------|
    4
    3        3


E|--0--1--0-----------|----------------||---3--|--------3--------3--|
B|-----------3--1--0--|--1-------------||------|-----0--------0-----|
G|--------------------|---------------*||*-----|--------------------|
D|--------------------|---------------*||*-----|--3--------3--------|
A|--3-----------------|--3-------------||------|--------------------|
E|-----------3--------|----------------||------|--------------------|
    3  1     4  1        1                  4     3     4 
             3           4


E|--------3--------3--|--------3--------3--|--------3--------3--|
B|-----1--------1-----|-----0--------0-----|-----1--------1-----|
G|--------------------|--------------------|--------------------|
D|--2--------2--------|--3--------3--------|--2--------2--------|
A|--------------------|--------------------|--------------------|
E|--------------------|--------------------|--------------------|
    2  1  4              3     4              2  1  4


                                                                                
E|------5--5-------|-------3--3-------|-----1--0-----------|------------------||
B|-----------------|------------------|-----------3--1--0--|--1---------------||
G|-----------------|---------------0--|--------------------|-----0-----------*||
D|-3------------0--|--2---------------|-----------3--------|--------2--------*||
A|-----------------|------------------|--------------------|--3--------3------||
E|-----------------|------------------|--3-----------------|------------------||
   2    4             2    4             3  1     4           1     2  3
                                                  3           3


E|------|-------------------|-------------------|-------------------|
B|------|-------------0--1--|--3--0-------------|-------------0--1--|
G|*-----|--2----2--2--------|--------2--1-------|--2----2--2--------|
D|*--2--|-------------------|----------------2--|-------------------|
A|------|--0-------3--------|--2----------------|--0-------3--------|
E|------|-------------------|-------------------|-------------------|
     2     3       3     1     4     3  1    2
                   4           2              


E|-------------------|-------------------|----------------1--|
B|--0----------------|-------------0--1--|--3--0-------------|
G|-----1-------------|--2----2--2--------|--------2--1-------|
D|--0-----2-------2--|-------------------|-------------------|
A|-------------------|--0-------3--------|--2----------------|
E|-----------0-------|-------------------|-------------------|
       1  2                                               1


E|--0--1--0-----------|-------------------||-----|----------------0--|
B|-----------3--1--0--|-------------------||-----|-------1--1--3-----|
G|--------------------|--2---------------*||--0--|-------------------|
D|--------------------|-----2------------*||-----|----------2--------|
A|--3--------2--------|--0-----3--0-------||-----|--3----------------|
E|--------------------|-------------------||-----|-------------------|
    3  1     4  1        3  2  4               (Same as 1st 9 bars)    
             2 


E|-------------0--1--|--0--1--3--3--1--0--|-------------------|
B|-------3--3--------|--------------------|--3--0-------------|
G|-------------------|--------------------|--------0-------0--|
D|-------------------|-----------2--------|-------------------|
A|----------2--------|--3-----------------|-------------------|
E|--3----------------|--------------------|--3--------3-------|


E|----------------0--|-------------0--1--|--0--1--0-----------|---------------||
B|-------1--1--3-----|-------3--3--------|-----------3--1--0--|--1------------||
G|-------------------|-------------------|--------------------|---------------||
D|----------2--------|-------------------|--------------------|---------------||
A|--3----------------|----------2--------|--3-----------------|--3------------||
E|-------------------|--3----------------|-----------3--------|---------------||
Suggest correction
Give kudos to tab author, rate the tab!
1 2 3 4 5
comments
print report bad tab
guest
Wanna post a correction for this tab? Suggest correction