Oops, an error
Loading. Please wait.

Danza Brasilera Tab

121 views 1 this week
no commentswrite comment
1 2 3 4 5
3 more votes to show rating
add to favorites
launch autoscroll
font size
0
reset
how to read this tab
guitar tuner
×
Best way to learn
"Danza Brasilera"
Autoscroll
slow
fast
+/-
esc
set tempo
stop
Transcribed by  
        'Marcus Wikström' <marcus_92@

with Thanks... -Greg


                           Danza Brasilera
                                                           By:Jorge Morel
 Allegro (Tempo di Samba)
  
|-----------------|----------------|-----------------|----------------|
|-5---5---5-5---5-|(5)-5---5-5-5---|-5---5---5-5---5-|(5)-5---5-5-5---|
|-5---5---5-5---5-|(5)-5---5-5-5---|-5---5---5-5---5-|(5)-5---5-5-5---|
|-4---4---4-4---4-|(4)-4---4-4-4---|-4---4---4-4---4-|(4)-4---4-4-4---|
|-0---------------|----------0-----|-0---------------|-0--------------|
|---------0-------|-2--------------|---------0-------|----------0-----|


|-5---0-0-0---0-|(0)-----------0-3-|-1----0-------0-|(0)-0---0-----0---|
|-5-----3-----1-|(1)-1---0---1-----|-1------3-3---0-|(0)-0---0---------|
|-5-----4-----2-|(2)-------2-------|-2------4-----0-|(0)-0---0---------|
|-4-----6-----4-|(4)---------------|-0------3-------|------------------|
|-0-------------|------------------|----------------|-3----------------|
|---------------|------------------|--------3-------|----------0-------|
 
 

|-5---0-0-0---0-|(0)-----------0---|----------------|---------0-------|
|-5-----3-----1-|(1)-1---0---1---4-|-3----3-0-0-----|----3----0-------|
|-5-----4-----2-|(2)-------2-------|-2------1-----2-|(2)-2----1-------|
|-4-----6-----4-|(4)---------------|-4------2-----2-|(2)-4------------|
|-0-------------|------------------|-2------------2-|(2)-2----2-------|
|---------------|------------------|--------0-----5-|(5)----------0---|

 

|-5---0-0-0---0-|(0)-----------0-3-|-1----0-------0-|(0)-----0-----0---|
|-5-----3-----1-|(1)-1---0---1-----|-1------3-3---0-|(0)---0-------3---|
|-5-----4-----2-|(2)-------2-------|-2------4-----0-|(0)-0---------4---|
|-4-----6-----4-|(4)---------------|-0------3-------|------------------|
|-0-------------|------------------|----------------|-3----------------|
|---------------|------------------|----------------|----------0-------|


|-5---0-0-0---0-|(0)-----------0---|----------------|--------------0---|
|-5-----3-----1-|(1)-1---0---1---4-|-3----3-0-0-----|--------1---1---1-|
|-5-----4-----2-|(2)-------2-------|-2------1-----2-|-r----2---2-------|
|-4-----6-----4-|(4)---------------|-4------2-----2-|-r--2-------------|
|-0-------------|------------------|-2------------2-|-r----------------|
|---------------|------------------|--------0-----5-|-r----------------|


|-----------8----8-10-|-8----8----0-5-----|-8-5---5---------|----------------|
|---10---10---10------|---10---10-----5---|-----5---5---5---|----------------|
|-9----9--------------|-----------------5-|-----------5---5-|------------R---|
|---------------------|-------------------|-----------------|-7--------------|
|---------------------|-------------------|-----------------|----------------|
|---------------------|-------------------|-----------------|--------0-------| 

                        
 

|-------0---------|-------0---------|-------0---------|-----0-----0-----|
|-----0---0-------|-----0---0-------|-----0---0-------|---0-----4-------|
|---5-------5---5-|---4-------4---4-|---2-------2---2-|-----------------|
|-7-----------7---|-5-----------5---|-3-----------3---|-2-----3---------|
|-----------------|-----------------|-----------------|-----------------|
|-----------------|-----------------|-----------------|-------------0---|


|-5---0-0-0---0-|(0)-----------0-3-|-1----0-------0-|(0)-0---0-----0---|
|-5-----3-----1-|(1)-1---0---1-----|-1------3-3---0-|(0)-0---0---------|
|-5-----4-----2-|(2)-------2-------|-2------4-----0-|(0)-0---0---------|
|-4-----6-----4-|(4)---------------|-0------3-------|------------------|
|-0-------------|------------------|----------------|-3----------------|
|---------------|------------------|--------3-------|----------0-------|


|-5---0-0-0---0-|(0)-----------0---|----------------|-----------------|
|-5-----3-----1-|(1)-1---0---1---4-|-3----3-0-0-----|-----------------|
|-5-----4-----2-|(2)-------2-------|-2------1-----2-|(2)--------------|
|-4-----6-----4-|(4)---------------|-4------2-----2-|(2)--------------|
|-0-------------|------------------|-2------------2-|(2)--------------|
|---------------|------------------|--------0-----5-|(5)--------------|


|-4---4-4-4---4-|(4)-4----7---7---|-7----0-0-0---0-|(0)-0--0---0-----0---|
|-6---5-5-5---5-|(5)-5----5---5---|-5------1-----1-|(1)-1--1---1-----1---|
|-------------7-|(7)-5----5---5---|-5------1-----4-|(4)-4--4---4-----4---|
|---------------|-----------------|----------------|---------------------|
|---------------|-----------------|-0--------------|-0-------------------|
|---------------|-----------------|--------0-------|-------------0-------|


|-4---4-4-4---4-|(4)-4----7---7---|-7----0-0-0---3-|(3)-3---------3---|
|-6---5-5-5---7-|(7)-5----5---5---|-5------1-----4-|(4)-3---3-----3---|
|-------------7-|(7)-5----5---5---|-5------1-----4-|(4)-4---4-----4---|
|---------------|-----------------|----------------|----3---3---------|
|---------------|-----------------|-0--------------|------------------|
|---------------|-----------------|--------0-------|-3--------3-------|


                                                                 (trill)
|-3----3-3-3---3-|(3)-3----6---6---|-8---7---3-------3-|(3)-3----2h3p2~--|
|-4----4-4-4---4-|(4)-4----4---4---|-8-------4---4---4-|(4)-3------------|
|------5-5-5---5-|(5)-4----4---4---|-8-------3-------3-|(3)-2------------|
|----------------|-----------------|-8-----------------|-----------------|
|-3------0-------|-3-------0-------|---------3-------3-|(3)-2-------(2)--|
|----------------|-----------------|-------------------|-----------------|

                                            Harm...............................
|-0-----------0---|-----3----2h3p2~----|-0--------------12---|---------12------||
|-----0-----0-----|-----4--------------|-----12------12------|-----------------||
|-------0---------|-----2--------------|--------12-----------|-----------------||
|-----------------|--------------------|---------------------|-----------------||
|-----------------|-2~-----------------|---------------------|-----------------||
|-0---------------|--------------------|-0-------------------|-12--------------||


||--5--------7---5-|(5)-0------------|----------7---5-|(5)-0------------|-----------------|
||--5----5---------|---------1-------|-5--------------|--------1--------|-----0---------0-|
||.-5--------------|-----------------|-5----5---------|------------0----|-5-------5-------|
||.-4--------------|-------------4---|-5----5---------|-----------------|-4-----------4---|
||--0--------------|-0---------------|-0--------------|-0---------------|-5---------------|
||---------0-------|---------0-------|--------0-------|----------0------|-----------------|


|------------------|-0----0---------|-----0----------|------3-------7---|(7)---7-----------|
|(0)-----------0---|-0----0-----5---|-----0-----3----|-1----1-------5---|(5)---5-------5---|
|----5-----5-------|-0----0-----5---|-----0-----1----|-0----0-------5---|(5)---5-------5---|
|--------4---------|------------5---|-----------2----|-2----------------|--------------5---|
|(5)---------------|-3------0-------|-3--------------|-0----------------|-0----------------|
|------------------|----------------|---------0------|----------0-------|----------0-------|


|----------------|-----7----0----|-----0---2---0---|-4---0---7---0---||----------------------
|----------------|-----7----0----|-3-------1-------|-3-------7-------||----------------------
|-5----5-----5---|(5)-------5----|-2-------1-------|-4-------7------.||--------------------
|-4----4-----4---|(4)------------|-4-------0-------|-4-------6------.||----------------------
|-0--------------|-0-------------|-2---------------|-----------------||----------------------
|--------0-------|--------0------|-----------------|-----------------||----------------------
Suggest correction
Give kudos to tab author, rate the tab!
1 2 3 4 5
comments
print report bad tab
guest
You may want to rate the tab now too:
select rating
Wanna post a correction for this tab? Suggest correction