Oops, an error
Loading. Please wait.

Danza Del Altiplano Tab

53 views 9 this week
no commentswrite comment
1 2 3 4 5
3 more votes to show rating
add to favorites
launch autoscroll
font size
0
reset
how to read this tab
guitar tuner
×
Best way to learn
"Danza Del Altiplano"
Autoscroll
slow
fast
+/-
esc
set tempo
stop
DANZA DEL ALTIPLANO                 LEO BROUWER

e]-5/8-5-----|-------|-----------|-------|
b]-------8-5-|-(5)---|-3-5-3-----|-------|
g]-----------|-------|-------5-2-|-(2)---|
d]-----------|-------|-----------|-------|
a]-----------|-------|-----------|-------|
e]-----------|-------|-----------|-------|

e]------------|-----------|------------|
b]------------|-----------|------------|
g]-2-5-2------|-----------|------------|
d|-------5-2--|-----------|-- X 2 -----|
a]------------|-5-7-5-----|------------|
e]------------|-------8-5-|-0-5-5-3-5--|


e]--------------|------------|-----------|
b]--------------|------------|-----------|
g]--0---0---0-0-|-0-0--------|-(0)-------|
d]--7---7---7-7-|-7-7--------|-(7)-------|  LET RING ---|
a]--7---7---7-7-|-7-7--------|-(7)-------|
e]--5---5---5-5-|-5-5--------|-(5)-------|

e]-------------|-----------0----|---3//5-5---5--3---|
b]-------------|--1-1---1--1----|---------------3---|
g]-2-2---2--5--|--2-2---2--2----|---3//5-5---5--4---|
d]-2-2---2--2--|--2-------------|---1//3---3--------|
a]-3---0-------|------3----0----|-------------------|
e]-0--------3--|--0-------------|---------------3---|

e]-0------0----|--3//5--5---5----3-|
b]-------------|-------------------|
g]-0------0----|--3//5¡ª-5---5----4-|
d]-------------|--1//3----3--------|
a]-3----3---3--|-------------------|
e]-------------|---------------3---|

e]--0--0-----0-----------|-------------------|
b]---------------------3-|-1-1--1--------0---|
g]--0--0-----0-------1---|-2-2--2------0-----|
d]-----------------2-----|-2-2--2----0-------|
a]--3-----3--------------|-0-----------------|
e]--------------0--------|---------0---------|

e]---------------|--------------|---------------|
b]----------0----|----------0---|----------0----|
g]---2------0----|---2------0---|---2------0----|
d]---2-----------|---2----------|---2-----------|
a]-3---0---------|-3---0--------|-3---0---------|
e]--------3---0--|--------3---0-|--------3---0--|

e]-----------------|--(12)--|
b]----------0------|--------|
g]---2------0------|--------|
d]---2-------------|--------|
a]-3---0-----------|--------|
e|--------3---0----|--------|

e]-----------------------------|-----------------------|
b]--5-8-5----------------------|-----------------------|
g]---------7-5-7-5---0-2-0-----|-----------------------|
d]-----------------7-------2---|--0-2-0----------------| X 2
a]-----------------------------|--------3-0-3-0--------|
e]-----------------------------|----------------3-0----|

e]---------------0-3-0--|---------0-3-0--|
b]----------------------|----------------|
g]----------------------|----------------|
d]--------2-5-2---------|--2-5-2---------|
a]----------------------|----------------|
e]--0-3-0---------------|----------------|

e]------12-(15)--|-------12-(15)-------|
b]---------------|---------------------|
g]---------------|---------------------|
d]---------------|---------------------|
a]---------------|---------------------|
e]---------------|---------------------|

e]--12-(15)--------|--12-(15)---------©¦
b]-----------------|------------------©¦
g]-----------------|------------------©¦
d]-----------------|------------------©¦
a]-----0--0-----0--|-----0--0-----0---©¦
e]--0--------0-----|--0--------0------©¦


e]--------0-------|-------0--------------|
b]--------1-------|-------1--------5-----|
g]--------2-------|-------2--------5-----|
d]----------------|----------------7-----|
a|--0--0-----0--3-|-3--3-----3//7--------|
e]----------------|----------------------|


e]---------7--------0--|-----3--0--0--3--0--|-----------0-----------|
b]---------8--------0--|-----3--0--0--3--0--|-----------0--------6--|
g]---------7--------0--|-----0-----0--------|-----------0--------6--|
d]---7--7-----7--5-----|--2-----------------|--2//7--7-----7--5-----|
a]---------------------|--3-----------------|--3//8-----------6-----|
e]---------------------|--------------------|-----------------------|

e]-----3--0--0--3--0--|-----------0-----------|-----3--0--0--3--0---|
b]-----3--0--0--3--0--|-----------0--------6--|-----3--0--0--3--0---|
g]-----0-----0--------|-----------0--------6--|-----0-----0---------|
d]--2-----------------|--2//7--7-----7--5-----|--2------------------|
a]--3-----------------|--3//8-----------6-----|--3------------------|
e]--------------------|-----------------------|---------------------|

e]-----------------|-------------------|
b]-----------------|-------------------|
g]-----------------|-------------------|
d]--2--2-----2--0--|-------------------|
a]-----------------|--3--------3-------|
e]--------0-----0--|--5--0--0--5--0--0-|

e]----------------|--------------------|
b]----------------|--------------------|
g]----------------|--------------------|
d]--2--2-----2--0-|--------------------|
a]----------------|--3--------3--------|
e]--------0-----0-|--5--0--0--5--0--0--|


e]--12-12-12-10--|--8-5-5-8--|--12-12-12-12-10---|
b]--9--9--9---9--|--5-5-5-5--|--9--9--9--9--9----|
g]--9--9--9---9--|--5-5-5-5--|--9--9--9--9--9----|
d]--9--9--9---9--|--5-5-5-5--|--9--9--9--9--9----|
a]--11-11-11--9--|--0--------|--11-11-11-11-9----|
e]--0------------|--0--------|--0----------------|

e]--8--5--5-5--8--8-|--8--5--5-5--8--8-|
b]--5-----5-5-----5-|--5-----5-5-----5-|
g]--5-----5-5-----5-|--5-----5-5-----5-|
d]--5-----5-5-----5-|--5-----5-5-----5-|
a]--0---------------|--0---------------|
e]--0---------------|--0---------------|

e]--8--5--5-5--8--8-|--5--8--8--5--5--8-|
b]--5-----5-5-----5-|--5-----5-----5----|
g]--5-----5-5-----5-|--5-----5-----5----|
d|--5-----5-5-----5-|--5-----5-----5----|
a]--0---------------|--0----------------|
e]--0---------------|--0----------------|

e]--8--5--5--8--8--5-|-5--8--8--5--5--8-|--8------8-|-(8)----|
b]--5-----5-----5----|-5-----5-----5----|--5------5-|-(5)----|
g]--5-----5-----5----|-5-----5-----5----|--5------5-|-(5)----|
d]--5-----5-----5----|-5-----5-----5----|--5------5-|-(5)----|
a]--0----------------|-0----------------|--0------0-|-(0)----|
e]--0----------------|-0----------------|--0------0-|-(0)----|

e]-5/8-5-----|-------|-----------|-------|
b]-------8-5-|-(5)---|-3-5-3-----|-------|
g]-----------|-------|-------5-2-|-(2)---|
d]-----------|-------|-----------|-------|
a]-----------|-------|-----------|-------|
e]-----------|-------|-----------|-------|

e]------------|-----------|------------|
b]------------|-----------|------------|
g]-2-5-2------|-----------|------------|
d|-------5-2--|-----------|-- X 2 -----|
a]------------|-5-7-5-----|------------|
e]------------|-------8-5-|-0-5-5-3-5--|

e]--------------|------------|-----------|
b]--------------|------------|-----------|
g]--0---0---0-0-|-0-0--------|-(0)-------|
d]--7---7---7-7-|-7-7--------|-(7)-------|  LET RING ---|
a]--7---7---7-7-|-7-7--------|-(7)-------|
e]--5---5---5-5-|-5-5--------|-(5)-------|

e]-------------|-----------0----|---3//5-5---5--3---|
b]-------------|--1-1---1--1----|---------------3---|
g]-2-2---2--5--|--2-2---2--2----|---3//5-5---5--4---|
d]-2-2---2--2--|--2-------------|---1//3---3--------|
a]-3---0-------|------3----0----|-------------------|
e]-0--------3--|--0-------------|---------------3---|

e]-0------0----|--3//5--5---5----3-|
b]-------------|-------------------|
g]-0------0----|--3//5¡ª-5---5----4-|
d]-------------|--1//3----3--------|
a]-3----3---3--|-------------------|
e]-------------|---------------3---|

e]--0--0-----0-----------|-------------------|
b]---------------------3-|-1-1--1--------0---|
g]--0--0-----0-------1---|-2-2--2------0-----|
d]-----------------2-----|-2-2--2----0-------|
a]--3-----3--------------|-0-----------------|
e]--------------0--------|---------0---------|

e]---------------|--------------|---------------|
b]----------0----|----------0---|----------0----|
g]---2------0----|---2------0---|---2------0----|
d]---2-----------|---2----------|---2-----------|
a]-3---0---------|-3---0--------|-3---0---------|
e]--------3---0--|--------3---0-|--------3---0--|

e]-----------------|--(12)--|
b]----------0------|--------|
g]---2------0------|--------|
d]---2-------------|--------|
a]-3---0-----------|--------|
e|--------3---0----|--------|
e]-----------------------------|-----------------------|
b]--5-8-5----------------------|-----------------------|
g]---------7-5-7-5---0-2-0-----|-----------------------|
d]-----------------7-------2---|--0-2-0----------------| X 2
a]-----------------------------|--------3-0-3-0--------|
e]-----------------------------|----------------3-0----|

e]---------------0-3-0--|---------0-3-0--|
b]----------------------|----------------|
g]----------------------|----------------|
d]--------2-5-2---------|--2-5-2---------|
a]----------------------|----------------|
e]--0-3-0---------------|----------------|

e]------12-(15)--|-------12-(15)-------|
b]---------------|---------------------|
g]---------------|---------------------|
d]---------------|---------------------|
a]---------------|---------------------|
e]---------------|---------------------|

e]--12-(15)--------|--12-(15)---------©¦
b]-----------------|------------------©¦
g]-----------------|------------------©¦
d]-----------------|------------------©¦
a]-----0--0-----0--|-----0--0-----0---©¦
e]--0--------0-----|--0--------0------©¦

e]---------------------|----------------------|
b]---------------------|----------------------|
g]---0//4--------------|--(4)-----------------|
d]---3//7--------------|--(7)-----------------|
a]---3//7--------------|--(7)-----------------|
e]---1//5--------------|--(5)-----------------|
Suggest correction
Give kudos to tab author, rate the tab!
1 2 3 4 5
comments
print report bad tab
guest
You may want to rate the tab now too:
select rating
Wanna post a correction for this tab? Suggest correction