Oops, an error
Loading. Please wait.

Danza Húngara No. 5 Tab

169 views 6 this week
no commentswrite comment
1 2 3 4 5
3 more votes to show rating
add to favorites
launch autoscroll
font size
0
reset
how to read this tab
guitar tuner
Autoscroll
slow
fast
+/-
esc
set tempo
stop
Help us to improve Ultimate-Guitar.com Take our survey!
×
(VIOLIN)


E||-------------|------------|-------------|-----------|-------------|
B||-------------|--1---------|-----------0-|-----------|-------------|
G||*---------2--|---------2--|--1------2---|--2--------|---------0-2-|
D||*--2---------|------------|-------------|-----------|--3----------|
A||-------------|------------|-------------|-----------|-------------|
E||-------------|------------|-------------|-----------|-------------|

---------|-------------|---------|-----------|-0---------|-----------|
---------|-------------|---------|---------1-|--------1--|-0-----1-3-|
---------|-------------|---------|-------2---|-----------|-----------|
--2------|-0--------2--|---------|-2---------|-----------|-----------|
---------|----3--2-----|-0-------|-----------|-----------|-----------|
---------|-------------|---------|-----------|-----------|-----------|

-----------|------------------|------------------|--------------|
--1--------|------------------|------------------|--------------|
-----------|------------------|------------------|--------------|
-----------|--3-5-7-3-2-3-5-2-|----2-3-----------|--0--------2--|
-----------|------------------|--5-----5-3-5-7-3-|-----3--2-----|
-----------|------------------|------------------|--------------|

------5------||---0----0---|--1-----0--|-------------|-0-----0------|
------5------||------------|-----------|----3----2-3-|---3-2---3----|
------5-----*||*--0----0---|--2-----0--|-------------|--------------|
------------*||*-----------|-----------|----3--------|--------------|
--0----------||------------|-----------|-------------|--------------|
-------------||------------|-----------|-------------|--------------|

------------|--0---------|-------------|----------------|-----------|
--3----3----|---------3--|----1----0-1-|--3-1-0-3-1-----|--0----0---|
------------|--0---------|-------------|----------------|-----------|
--3----3----|---------3--|----2--------|----------------|--0----0---|
------------|------------|-------------|----------------|-----------|
------------|------------|-------------|----------------|-----------|

------------|-------------|--------------|-0-----------|------------|
-3--1----0--|-L-----------|-0-----0------|-0-----------|------------|
------------|----2----1-2-|---2-1---2----|-1-----------|-------1----|
-3--2----0--|-L-----------|--------------|-----------2-|-4----------|
------------|----3--------|--------------|-------------|------------|
------------|-------------|--------------|-------------|------------|

-------------|----------------||------0----|-17----------|---------||
-------------|-0-----0--------||-6----0----|-17----------|---------||
-2--2----1-2-|---2-1---2-----*||-4----1----|-17----------|---------||
-------------|---------------*||-7---------|-------------|---------||
-------------|----------------||-----------|-------------|---------||
-------------|----------------||-----------|-------------|---------||


GUITARRA (ACOMPAÑAMIENTO)


E||--------------|------------|------------|------------|----1-----1--|
B||------1-----1-|----1-----1-|----3-----3-|----1-----1-|----3-----3--|
G||*-----2-----2-|----2-----2-|----1-----1-|----2-----2-|----2-----2--|
D||*-----2-----2-|----2-----2-|----0-----0-|----2-----2-|-0-----------|
A||---0----------|-0----------|----2-----2-|-0----------|-------0-----|
E||---------0----|-------0----|-0-----0----|-------0----|-------------|

------------|------------|------------|-------------|--------------|
----1-----1-|----3-----3-|----1-----1-|----1-----1--|-----1-----1--|
----2-----2-|----1-----1-|----2-----2-|----2-----2--|-----2-----2--|
----2-----2-|----0-----0-|----2-----2-|----2-----2--|-----2-----2--|
-0----------|----2-----2-|-0----------|-0-----------|--0-----------|
-------0----|-0-----0----|-------0----|-------0-----|--------0-----|

------------|------------|----1-----0--|-----1-----0--|--------------|
----3-----3-|----1-----1-|----1-----0--|-----3-----1--|-----3-----3--|
----1-----1-|----2-----2-|----2-----0--|-----2-----0--|-----1-----1--|
----0-----0-|----2-----2-|-3--3--2--2--|--0--0-----2--|-----0-----0--|
----2-----2-|-0----------|----3-----2--|-----0--3--3--|-----2-----2--|
-0-----0----|-------0----|----1-----0--|--------------|--0-----0-----|

-------------||--------------|------------|----1-----1-|----1-----1--|
----1-----1--||------2-----2-|----2-----2-|----3-----3-|----3-----3--|
----2-----2-*||*-----0-----0-|----0-----0-|----2-----2-|----2-----2--|
----2-----2-*||*-----2-----2-|----2-----2-|-0----------|-0-----------|
-0-----------||---0-----0----|-0-----0----|-------0----|-------0-----|
-------0-----||--------------|------------|------------|-------------|

----1-----1--|----1-----1--|----0-----0--|----0-----0--|-------------|
----0-----0--|----0-----0--|----1-----1--|----1-----1--|----3-----3--|
----0-----0--|----0-----0--|----0-----0--|----0-----0--|----1-----1--|
-------------|-------------|----2-----2--|----2-----2--|----0-----0--|
-2-----2-----|-2-----2-----|-3-----------|-3-----------|----2-----2--|
----3-----3--|----3-----3--|-------3-----|-------3-----|-0-----0-----|

-------------|----1-----1--|----1-----1--|-------------|-------------|
----3-----3--|----1-----1--|----1-----1--|----3-----3--|----3-----3--|
----1-----1--|----2-----2--|----2-----2--|----1-----1--|----1-----1--|
----0-----0--|----3-----3--|----3-----3--|----0-----0--|----0-----0--|
----2-----2--|-3--3-----3--|-3--3-----3--|----2-----2--|----2-----2--|
-0-----0-----|-------1-----|-------1-----|-0-----0-----|-0-----0-----|

--------------|-----1---------||--1-----------|-----------|---------||
-----1-----1--|-----3-----1---||--3------3----|--1--------|---------||
-----2-----2--|-----2-----2--*||--2------1----|--2--------|---------||
-----2-----2--|--0--------2--*||--0------0----|--2--------|---------||
--0-----------|--------0------||--2------2----|--0--------|---------||
--------0-----|---------------||---------0----|-----------|---------||
Suggest correction
Give kudos to tab author, rate the tab!
1 2 3 4 5
comments
print report bad tab
guest
You may want to rate the tab now too:
select rating
Wanna post a correction for this tab? Suggest correction