Oops, an error
Loading. Please wait.
92 views 1 this week
no commentswrite comment
1 2 3 4 5
3 more votes to show rating
add to favorites
launch autoscroll
font size
0
reset
how to read this tab
guitar tuner
×
Best way to learn
"Dee"
Autoscroll
slow
fast
+/-
esc
set tempo
stop
  
El símbolo  indica enharmónicos

 
e -7---------------7-------5-----------------------
B -----------7h-8----------------------------------
G -7-------7---------------------------------------
D -------------------------0-----------------------
A -10----------------------5-----------------------
E -------------------------------------------------


e -7----------------------7-----------7-----------10----------10----------
B -7------------------------------7-------7---------------8-------8-------
G -7--------------------------7---------------7-------7---------------7---
D -7----------------------9-----------------------9-----------------------
A -------------------------------------------------------------------------
E -------------------------------------------------------------------------


e -----------------12------12----------------------7---------------7-------
B -------------10--------------------------------------------7h-8----------
G ---------9---------------9-----------------------7-------7---------------
D -9/--11------------------------------------------------------------------
A -------------------------------------------------10----------------------
E -------------------------------------------------------------------------


e -5-----------------------3---------------3-------------------------------
B ---------------------------------2---------------7-------5-------3-------
G -------------------------------------------------------------------------
D -0-----------------------2-----------------------------------------------
A -5-----------------------------------------------5-------4-------2-------
E -------------------------------------------------------------------------


e -0---------------0-------------------------------------------------------
B ---------0---------------5p--3p--2-------3-------3---------------3-------
G -------------------------------------------------------------2-------2---
D ---------------------------------------------------------0---------------
A -------------------------0-----------------------------------------------
E -------------------------------------------------2-----------------------

 
e -0---------------2h3p2p0-2---------------2-----------------------0---2---
B ---------3---------------------------0-------0---------------------------
G ---------------------------------2---------------------------------------
D -------------------------1-----------------------------------------------
A -------------------------------------------------2-----------------------
E -----------------------------------------------------------------3---2---


e -3-----------------------3p--2---2p--0-------0---------------------------
B -------------0---------------------------3-------2---------------3-------
G ---------0-------0---------------------------------------0---------------
D -----2-------------------------------------------------------------------
A -------------------------------------------------0-----------------------
E -0-----------------------0-------4---------------------------------------


e -12-----------------------------------------------------2---3---5h7p5---
B -12-----------------------------------------------------3---5-----------
G -12-----------------------2h4p2p0---------------------------------------
D -12-------------------------------4p2p0---------0-----------------------
A -----------------------------------------4p2p0---------------------------
E -------------------------------------------------------------------------

 
e -------------0---------------2---3---5---7h9p7---------------------------
B -3---------------3-----------3---5---7-----------2---------------3-------
G ---------0-----------------------------------------------0---------------
D -----0-------------------0-----------------------2-----------------------
A -2-----------------------------------------------0-----------------------
E -------------------------------------------------------------------------

 
e -5p--3---3p--2---2p--0---2p--0-------0---------------0---------------0---
B ---------------------------------3-------5-------3-------2p--0---3-------
G -------------------------------------------------------------------------
D -0-----------------------------------------------------------------------
A -------------------------4-----------------------2-----------------------
E -------------------------------------------------------------------------

 
e ---------------------------------------------------------3p------2-------
B -2---------------3-------3-----------------------------------------------
G ---------0-----------------------2---------------------------------------
D -----------------------------------------0-------------------------------
A -0-----------------------------------------------------------------------
E -------------------------2-----------------------2-------0---------------

 
e -2p------0---------------7---------------7-------5-----------------------
B -----------------------------------7h-8----------------------------------
G -------------------------7-------7---------------------------------------
D -------------------------|-----------------------0-----------------------
A -------------------------10----------------------5-----------------------
E -4-----------------------------------------------------------------------

 
e -7----------------------7-----------7-----------10----------10----------
B -7------------------------------7-------7---------------8-------8-------
G -7--------------------------7---------------7-------7---------------7---
D -7----------------------9-----------------------9-----------------------
A -------------------------------------------------------------------------
E -------------------------------------------------------------------------

 
e -----------------12------12----------------------7---------------7-------
B -------------10--------------------------------------------7h-8----------
G ---------9---------------9-----------------------7-------7---------------
D -9/--11------------------------------------------------------------------
A -------------------------------------------------10----------------------
E -------------------------------------------------------------------------


e -5-----------------------3---------------3-------------------------------
B ---------------------------------2---------------7-------5-------3-------
G -------------------------------------------------------------------------
D -0-----------------------2-----------------------------------------------
A -5-----------------------------------------------5-------4-------2-------
e -------------------------------------------------------------------------


e -0---------------0-------------------------------------------------------
B ---------0---------------5p--3p--2-------3-------3---------------3-------
G -------------------------------------------------------------2-------2---
D ---------------------------------------------------------0---------------
A -------------------------0-----------------------------------------------
E -3-----------------------------------------------2-----------------------

 
e -0---------------2h3p2p0-2---------------2-----------------------0---2---
B ---------3---------------------------0-------0---------------------------
G ---------------------------------2---------------------------------------
D -------------------------1-----------------------------------------------
A -------------------------------------------------2-----------------------
E -----------------------------------------------------------------3---2---

e -3-----------------------3p--2---2p--0-------0---------------------------
B -------------0---------------------------3-------2---------------3-------
D ---------0-------0---------------------------------------0---------------
G- ----2-------------------------------------------------------------------
A -------------------------------------------------0-----------------------
E -0-----------------------0-------4---------------------------------------


e -12-----------------------------------------------------2---3---5h7p5---
B -12-----------------------------------------------------3---5-----------
G -12-----------------------2h4p2p0---------------------------------------
D -12-------------------------------4p2p0---------0-----------------------
A -----------------------------------------4p2p0---------------------------
E -------------------------------------------------------------------------

 
e -------------0---------------2---3---5---7h9p7---------------------------
B -3---------------3-----------3---5---7-----------2---------------3-------
G ---------0-----------------------------------------------0---------------
D -----0-------------------0-----------------------2-----------------------
A -2-----------------------------------------------0-----------------------
E -------------------------------------------------------------------------

 
e -5p--3---3p--2---2p--0---2p--0-------0---------------0---------------0---
B ---------------------------------3-------5-------3-------2p--0---3-------
G -------------------------------------------------------------------------
D -0-----------------------------------------------------------------------
A -------------------------4-----------------------2-----------------------
E -------------------------------------------------------------------------

 
e ---------------------------------------------------------3p------2-------
B -2---------------3-------3-----------------------------------------------
G ---------0-----------------------2---------------------------------------
D -----------------------------------------0-------------------------------
A -0-----------------------------------------------------------------------
E -------------------------2-----------------------2-------0---------------

 
e -2p------0---------------7--------||
B -------------------------7--------||
G -------------------------7--------||
D -------------------------7--------||
A -----------------------------------||
E -4---------------------------------||
Suggest correction
Give kudos to tab author, rate the tab!
1 2 3 4 5
comments
print report bad tab
guest
You may want to rate the tab now too:
select rating
Wanna post a correction for this tab? Suggest correction