Oops, an error
Loading. Please wait.

Dos Guitarras Tab

248 views 6 this week
no commentswrite comment
1 2 3 4 5
3 more votes to show rating
add to favorites
×
Save as Personal and add changes to this tab that will be seen only by you. Learn more ›
×
You can save this tab as Personal to edit and correct it or add notes. All changes will be seen only by you. Learn more »
save as personal
new!
launch autoscroll
font size
0
reset
how to read this tab
guitar tuner
Autoscroll
slow
fast
+/-
esc
set tempo
stop
Esta canción es muy buena, sólo que no sé de que autor ni más información de dónde conseguirla; 
quiero dedicar esta transcripción a mi colega, el Dr. Neto Estrada, que fue el que me enseñó la 
canción, y me prestó la transcripción, sólo que en otro formato que no era tablatura, así que la
pasé a tab. ojalá y alguien pudiera decirme más información sobre la canción.
Como su nombre lo indica, son 2 guitarras, pero se puede acompañar con una 3a guitarra tocando un
corrido lento, con los acordes indicados, o la 2a guitarra acoplar el bajeo con los acordes.

PRIMERA PARTE

    Dm               Am              E            Am            Dm
e|--------5--7--5--------5--7--5--------4--5--4----8-7-5---------------5--7--5--7--5--|
B|------6----6--6------5----5--5------3----3--3----------8-7-6-5-----6----6--6--6--6--|
G|----7------7--7----5------5--5----4------4--4--------------------7------7--7--7--7--|
D|--0------------------------------------------------------------0--------------------|
A|-----------------0-----------------------------0------------------------------------|
E|--------------------------------0---------------------------------------------------|
                                                                                      |
e|-------------------------------------------------------0----------------------------|
B|-------------------------------------------------1-0-----1-0------------------------|
G|-----------------------------------------------------2-------2----------------------|
D|--0--------3---------------------------------------------------0--------3-----------|
A|-----------------0-----------------------------0------------------------------------|
E|--------------------------------0---------------------------------------------------|

   Am
e|--------5--7--5--7--5---------|
B|------5----5--5--5--5---------|
G|----5------5--5--5--5---------|
D|------------------------------|
A|--0---------------------------|
E|------------------------------|
                                |
e|------------------------------|
B|------------------------------|
G|------------------------------|
D|------------------------------|
A|--0--------3------------------|
E|------------------------------|

FINAL 1

    E
e|--------4--5--4--5---17-------|
B|------3----3--3--3---17-------|
G|----4------4--4--5---17-------|
D|------------------------------|
A|------------------------------|
E|--0---------------------------|
                                |
e|------------------------------|
B|------------------------------|
G|------------------------------|
D|------------------------------|
A|-----------------0------------|
E|--0--------4---------3h5------|

SEGUNDA PARTE Primera guitarra toca la primera parte un poco más rápido, y la segunda guitarra:

e|--13--12--10--8--7--5-5-(8 veces c/u)--5--17---|
B|-----------------------------------------------|
G|-----------------------------------------------|
D|-----------------------------------------------|
A|-----------------------------------------------|
E|-----------------------------------------------|

TERCERA PARTE

    E                  Am                E                  Am
e|-----0-----0---0-1-0-----0-----0---0-1-0-----0-----0---0-1-0-----0-----0---0-1-0----|
B|-----0-------4-----------1-------4-----------0-------4-----------1-------4----------|
G|-----1-------------------2-------------------1-------------------2------------------|
D|------------------------------------------------------------------------------------|
A|----------------------0-----0---------------------------------0-----0---------------|
E|--0-----0---------------------------------0-----0-----------------------------------|
                                                                                      |
e|-----0-------------------0-------------------0-------------------0------------------|
B|-----0-------------------1-------------------0-------------------1------------------|
G|-----1-------------------2-------------------1-------------------2------------------|
D|-----------2-1-2-3-2-----------2-1-2-3-2-----------2-1-2-3-2-----------2-1-2-3-2----|
A|----------------------0-----0---------------------------------0-----0---------------|
E|--0-----0---------------------------------0-----0-----------------------------------|


   Dm                   Am                          E                   Am
e|-----1--1-0-1-3-1-3-1-1-0---0-1-0---0-1-0---0-1-0---0-0-----------------------------|
B|-----3--------------------4-------4-------4-------4-----3-3-1-1-0-0-----------0-----|
G|-----2--------------------------------------------------------------2-2-1---1---2-1-|
D|--0-----------------------------------------------------------------------4---------|
A|------------------------------------------------------------------------------------|
E|------------------------------------------------------------------------------------|
                                                                  |
e|-----1--------3-1-3-1---------------------------------------------------------------|
B|-----3------------------------------------------------------------------------------|
G|-----2------------------------------------------------------------------------------|
D|--0---------------------------------------------------------------------------------|
A|----------------------0---3---0---3---0---3---0---3---------------------------0---3-|
E|------------------------------------------------------0---3---0---4---0---4---------|
 
     Dm      Am     E        Am     Dm       Am       E     Am       Dm      Am          
e|--------------------0-------1-0---0-3-1-3-1-1-0-1-0-0---0---------------------------|
B|----1-0---0-3-1-0-1---3-2-3-----4---------------------3---3-3-1-3-1-1-0-1-0-0---0---|
G|--2-----3---------------------------------------------------------------------2-----|
D|------------------------------------------------------------------------------------|
A|------------------------------------------------------------------------------------|
E|------------------------------------------------------------------------------------|
                                                                  |
e|------------------------------------------------------------------------------------|
B|------------------------------------------------------------------------------------|
G|------------------------------------------------------------------------------------|
D|----0---3---------------------------3---0---------------------------3---0-----------|
A|------------0---3-----------0---3-----------3---0-----------3---0-----------3---0---|
E|--------------------0---4---------------------------4---0---------------------------|

      E      Am
e|------------------|
B|------------------|
G|--2-2-1---1-2-----|
D|--------4---------|
A|------------------|
E|------------------|
                  |
e|------------------|
B|------------------|
G|------------------|
D|------------------|
A|------------0-----|
E|----4---0---------|

CUARTA PARTE

   Dm    Am    E    Am
e|--5--5--5--5-4-2-4-5------------|
B|--6--6--5-----------------------|
G|--7--7--5--------------2 VECES--|
D|--------------------------------|
A|--------------------------------|
E|--------------------------------|
                          |
e|--------------------------------|
B|--------------------------------|
G|--------------------------------|
D|--0--0-----------------2 VECES--|
A|--------0--0-------0------------|
E|-------------4-2-4--------------

QUINTA PARTE Las 2 guitarras repiten la primera parte, pero con el siguiente FINAL 2:

                        E  Am
e|-----0-----0--1--2--3--4--5---0---5-------------------------------------------------|
B|--------4---------------------0---5-------------------------------------------------|
G|------------------------------1---5-------------------------------------------------|
D|------------------------------2-----------------------------------------------------|
A|------------------------------2-----------------------------------------------------|
E|--0---------------------------0-----------------------------------------------------|
                                                                  |
e|------------------------------0---5-------------------------------------------------|
B|------------------------------0---5-------------------------------------------------|
G|--------------------0--1--2---1---5-------------------------------------------------|
D|-----2--1--2--3--4------------2-----------------------------------------------------|
A|------------------------------2-----------------------------------------------------|
E|--0---------------------------0-----------------------------------------------------|
Suggest correction
Give kudos to tab author, rate the tab!
1 2 3 4 5
comments
print report bad tab
guest
Wanna post a correction for this tab? Suggest correction