Oops, an error
Loading. Please wait.

El Abejorro Tab

176 views 1 this week
no commentswrite comment
1 2 3 4 5
3 more votes to show rating
add to favorites
×
Save as Personal and add changes to this tab that will be seen only by you. Learn more ›
×
You can save this tab as Personal to edit and correct it or add notes. All changes will be seen only by you. Learn more »
save as personal
new!
launch autoscroll
font size
0
reset
how to read this tab
guitar tuner
Autoscroll
slow
fast
+/-
esc
set tempo
stop
Una de las mas famosas clasicas aqui va!!!

E---------------------------------|---------------------------------|
B-----0-------0-------0-------0---|-----1-------1-------1-------1---|
G---3---3---3---3---3---3---3---3-|---4---4---4---4---4---4---4---4-|
D---------0======---------0======-|---------0---------------0-------|
A-----------------4======---------|-0-------------------------------|
E-3======-------------------------|-----------------2---------------|
  |       |       |       |           4 1           2       p i m i
  ---------       ---------
  2 3             4
[mp] (on repeat - [f])


E---------------------------------|---------------------------------|
B-----0-------0-------0-------0---|-----0-------0-------0-------0---|
G---3---3---3---3---3---3---3---3-|---3---3---3---3---3---3---3---3-|
D---------0---------------2-------|-0---------------0---------------|
A-----------------4---------------|---------4-----------------------|
E-3-------------------------------|-------------------------3-------|
  2 3             4                   3     4               2
                                            <<<<<<<<<<<<<<<<<<


E-----0-------0-------0-------0---|---------------------------------|
B---4---4---4---4---4---4---4---4-|-----0-------0-------0-------0---|
G---------0---------------2-------|---3---3---3---3---3---3---3---3-|
D-----------------4---------------|---------0---------------2-------|
A-3-------------------------------|-----------------4---------------|
E---------------------------------|-3-------------------------------|
  2 4             3       1         2 3             4       2
 [f] (on repeat - [ff])                            >>>>>>>>>>>>>>>>>>


                                    _______ _______      |
                                    ======= =======     -@-
                                    | | | | | | | | |    |
E---------------------------------|---------------------||
B-----1-------1-------1-------1---|-----0-------0-------||
G---4---4---4---4---4---4---4---4-|---3---3---4---4-----||
D-0-----------------------0-------|---------0-------5---||
A---------3-----------------------|---------------------||
E-----------------2---------------|-3-------------------||
    4 1           2                 2 3       3     4
>>>>>>>>>>                          |       |   [p] |
                                    ---------


E-----3-------3-------3-------3---|-----3-------3-------3-------3---|
B---0---0---0---0---0---0---0---0-|---0---0---0---0---0---0---0---0-|
G---------0-----------------------|---------------------------------|
D-----------------4-------2-------|-0-------------------------------|
A---------------------------------|---------2-------0---------------|
E-0-------------------------------|-------------------------3-------|
[p]   3   p i m i 4       1             3   1               2


E-----3-------3-------3-------3---|-----3-------3-------3-------3---|
B---0---0---0---0---0---0---0---0-|---0---0---0---0---0---0---0---0-|
G---------0-----------------------|---------------------------------|
D-----------------4-------2-------|-0-------------------------------|
A-2-------------------------------|---------2-------0---------------|
E---------------------------------|-------------------------3-------|
  1


E-----3-------3-------3-------3---|-----3-------3-------3-------3---|
B---0---0---0---0---0---0---0---0-|---0---0---0---0---0---0---0---0-|
G---------0-----------------------|---------------------------------|
D-----------------4-------2-------|-0-------------------------------|
A---------------------------------|---------2-------0---------------|
E-0-------------------------------|-------------------------3-------|
          cre _ _ _ _ _ _ _ _ _ _ _ _ _ _ _ _ _ _ _ _ _ _ _ _ scen _ _


E-----3-------3-------3-------3---|-----3-------3-------3-------3---||
B---0---0---0---0---0---0---0---0-|---0---0---0---0---0---0---0---0-||
G---------0-----------------------|---------------------------------||
D-----------------2-------0-------|---------------------------------||
A-2-------------------------------|-2-------0-----------------------||
E---------------------------------|-----------------3-------0-------||
                  1   3             1   3           2
 _ _ _ _ _ _ _ _ _ _ _ _ _ _ _ [ch]C                       D.C[/ch]. al Coda


  Coda:                                     VIII.................

E|-------------------------------------------|---------------------
B|------8----------8---------8----------8----|------8---------8----
G|*--11---11----11---11---11---11----11---11-|---11---11---11---11-
D|*---------------------9--------------------|---------------------
A|-----------10-------------------10---------|-----------9---------
E|-0-----------------------------------------|-8-------------------
     4  1    3          2                      1 4  1    2
[p]                                        [mp]


  .....................
                      |
  ---------------------|-------------------------------------------|
  ------8---------8----|------8----------8---------8----------8----|
  ---11---11---11---11-|---11---11----11---11---11---11----11---11-|
  -8-------------------|----------------------9--------------------|
  -----------9---------|-----------10-------------------10---------|
  ---------------------|-0-----------------------------------------|
   1 4  1    2        [p]


E---------------------------------|---------------------------------|
B-----6-------6-------6-------6---|-----5-------5-------5-------5---|
G---9---9---9---9---9---9---9---9-|---8---8---8---8---8---8---8---8-|
D---------7-----------------------|-----------------7---------------|
A-0---------------8-------7-------|---------6---------------6-------|
E---------------------------------|-7-------------------------------|
    4 1   2       3       2         3 4 1   2       3
[mp]

                                  ___________________________________
                                  |1.
E---------------------------------|---------------------------------|
B-----5-------1-------1-------1---|-----1-------1-------2-------3---|
G---8---8---4---4---4---4---4---4-|---4---4---4---4---5---5---6---6-|
D---------------------------------|---------------------------------|
A---------0---------------0-------|-2-------3-------4-------5-------|
E-7---------------2---------------|---------------------------------|
  3 4 1     4 1   2                 2       3 4 1   3 4 1   3 4 1
                                          <<<<<<<<<<<<<<<<<<<<<<<<<<<

_____________________________________ ____
                                     || 2.
E------------------------------------||--
B-----4-------5-------6--------7-----||--
G---7---7---8---8---9---9---10---10-*||--
D-----------------------------------*||--
A-6-------7-------8-------9----------||--
E------------------------------------||--
 <<<<<<<<<<<<<<<<<<<<<            (subito)

 __________________________________
 2.
  ---------------------------------|---------------------------------||
  -----1-------1-------1-------1---|-----1-------1-------1-------1---||
  ---4---4---4---4---4---4---4---4-|---4---4---4---4---4---4---4---4-||
  ---------------------------------|---------------------------------||
  -2-------0---------------3-------|-2-------0-------2-------2-------||
  -----------------2---------------|---------------------------------||
   2               2       3                  poco rit.


E-----3-------3-------3-------3---|-----3-------3-------3-------3---|
B---0---0---0---0---0---0---0---0-|---0---0---0---0---0---0---0---0-|
G---------0-----------------------|---------------------------------|
D-----------------4-------2-------|-0-------------------------------|
A---------------------------------|---------2-------0---------------|
E-0-------------------------------|-------------------------3-------|
[p]                                                [mp]


E-----3-------3-------3-------3---|-----3-------3-------3-------3---|
B---0---0---0---0---0---0---0---0-|---0---0---0---0---0---0---0---0-|
G---------0-----------------------|---------------------------------|
D-----------------4-------2-------|-0-------------------------------|
A-2-------------------------------|---------2-------0---------------|
E---------------------------------|-------------------------3-------|


E-----3-------3-------3-------3---|-----3-------3-------3-------3---|
B---0---0---0---0---0---0---0---0-|---0---0---0---0---0---0---0---0-|
G---------0-----------------------|---------------------------------|
D-----------------4-------2-------|-0-------------------------------|
A---------------------------------|---------2-------0---------------|
E-0-------------------------------|-------------------------3-------|
          cre _ _ _ _ _ _ _ _ _ _ _ _ _ _ _ _ _ _ _ _ _ _ _ _ scen _ _


E-----3-------3-------3-------3---|-----3-------3-------3-------3---||
B---0---0---0---0---0---0---0---0-|---0---0---0---0---0---0---0---0-||
G---------0-----------------------|---------------------------------||
D-----------------2-------0-------|---------------------------------||
A-2-------------------------------|-2-------0-----------------------||
E---------------------------------|-----------------3-------0-------||
 _ _ _ _ _ _ _ _ _ _ _ _ _ _ _ [ch]C[/ch]


E---------------------------------|---------------------------------|
B-----0-------0-------0-------0---|-----1-------1-------1-------1---|
G---3---3---3---3---3---3---3---3-|---4---4---4---4---4---4---4---4-|
D---------0---------------0-------|---------0---------------0-------|
A-----------------4---------------|-0-------------------------------|
E-3-------------------------------|-----------------2---------------|
[F]


E---------------------------------|---------------------------------|
B-----0-------0-------0-------0---|-----0-------0-------0-------0---|
G---3---3---3---3---3---3---3---3-|---3---3---3---3---3---3---3---3-|
D---------0---------------2-------|-0---------------0---------------|
A-----------------4---------------|---------4-----------------------|
E-3-------------------------------|-------------------------3-------|
                                            <<<<<<<<<<<<<<<<<<


E-----0-------0-------0-------0---|---------------------------------|
B---4---4---4---4---4---4---4---4-|-----0-------0-------0-------0---|
G---------0---------------2-------|---3---3---3---3---3---3---3---3-|
D-----------------4---------------|---------0---------------2-------|
A-3-------------------------------|-----------------4---------------|
E---------------------------------|-3-------------------------------|
 [ff]                                              >>>>>>>>>>>>>>>>>>


E---------------------------------|---------------------------------|
B-----1-------1-------1-------1---|-----0-------0-------0-------0---|
G---4---4---4---4---4---4---4---4-|---3---3---3---3---4---4---3---3-|
D-0-----------------------0-------|-----------------0-------4-------|
A---------3-----------------------|---------4-----------------------|
E-----------------2---------------|-3-------------------------------|
>>>>>>>>>>                          2 3     4 3       3     2 1
                                           [mp]


      1/2 II_____III_____VI________VII_____

E-------------3-------3-------6---|-----7---------9----------10----
B-----0-----2---2---3---3---8---8-|---8---8----11---11----12----12-
G---4---4-3-------4-------6-------|-7-------12---------12----------
D-5-------------------------------|--------------------------------
A---------------------------------|--------------------------------
E---------------------------------|--------------------------------
  3 2   2 2 1 3   2 1 1   1 3 1     1 2 1   3  2  1    3  4  1
        dimi _ _ _ _ _ _ _ _ _ _ _ _ nu _ _ _ _ _ _ _ _ _ _ _ _ en


1/2_XI_________XII_________XI__________XII_________XI_________

-------14----|-------15----------14----------15----------14----|
----11----11-|----12----12----11----11----12----12----11----11-|
-------------|-12----------------------12----------------------|
-12----------|-------------12----------------------12----------|
-------------|-------------------------------------------------|
-------------|-------------------------------------------------|
 2  1  4       1  1  4
_ _ _ _ _ _ _ _ _ _ _ _ _ _ _ _ _ _ _ do _ _ _ _ _ _ _ _ _ _ [pp]


  XII     arm.        ._
  |        |          |
E-15---------------|--------------||
B-12------<5>------|--------------||
G-12------<5>------|--0-----------||
D---------<5>------|--0-----------||
A------------------|--2-----------||
E------------------|--3-----------||

Ya saben duda o sugerencia a mi mail

SEE LATER!!!!
Suggest correction
Give kudos to tab author, rate the tab!
1 2 3 4 5
comments
print report bad tab
guest
Wanna post a correction for this tab? Suggest correction