Oops, an error
Loading. Please wait.

El Cascanueses Tab

155 views 3 this week
no commentswrite comment
1 2 3 4 5
3 more votes to show rating
add to favorites
launch autoscroll
font size
0
reset
how to read this tab
guitar tuner
Autoscroll
slow
fast
+/-
esc
set tempo
stop
Help us to improve Ultimate-Guitar.com Take our survey!
×
E|-0---------------|-0---------0-------|
B|-1---------0-1-3-|---------1-------1-|
G|---------2-------|-------------------|
D|---------3-------|-------0-2-----2---|
A|-0---------------|-0---3-----0-------|
E|-----------------|-------------------|

E|-0---------------|-----------------|
B|---------1-----1-|-----------0---0-|
G|-------2---2-----|-2-----------2---|
D|---------0---3---|-2-------0-------|
A|-0---------------|-0---------------|
E|-----------------|-----------------|

E|-0---------------|-0---------0-------|
B|-1---------0-1-3-|---------1-------1-|
G|---------2-------|-------------------|
D|---------3-------|-------0-2-----2---|
A|-0---------------|-0---3-----0-------|
E|-----------------|-------------------|

E|-0---------------|--------------------------|
B|---------1-----1-|--------------------------|
G|-------2---2-----|-2-----------------2------|
D|---------0---3---|---------0-2-3-2-0--------|
A|-0---------------|-0-2-3-3-----------3-2-0--|
E|-----------------|--------------------------|

E|-------------0-1-|-3-----1-0---1-3-|
B|-0---1---3-------|-----------------|
G|-----------------|-----------------|
D|-----------------|-----------------|
A|-----------------|-----------------|
E|-3-------1-------|-0---------------|

E|-5-----3-1---3-5-|/7-----5-0-------|
B|-6---------------|-----------------|
G|---------2-------|-8-------1---2---|
D|-0---------------|-----------------|
A|---------3-------|-------------0---|
E|-----------------|-7-------0-------|

E|-------------0-1-|-3-----1-0---1-3-|
B|-0---1---3-------|-----------------|
G|-----------------|-----------------|
D|-----------------|-----------------|
A|-----------------|-----------------|
E|-3-------1-------|-0---------------|

E|-5-----3-1---3-5-|-6---6-5---4---4-5---|
B|-6---------------|---6---6-----5---6---|
G|---------2-------|-7-------------------|
D|-0---------------|-------0---------0---|
A|---------3-------|---------------------|
E|-----------------|-6---------0---------|

E|-6---6-5---4---4-5---|-6---6-6---6-------0-|
B|---6---6-----5---6---|---6-----6---6-------|
G|-7-------------------|-7-----------4-------|
D|-------0---------0---|-------------6-------|
A|---------------------|---------------------|
E|-6---------0---------|-6-----------0-------|

E|-6---6-6---6-------0-|-3-0-2-2-0-2-3-0-3-3-0-3-|
B|---6-----6---6-------|-1-----------0-----------|
G|-7-----------4-------|-------------------------|
D|-------------6-------|-------------------------|
A|---------------------|-0-----------2-----------|
E|-6-----------0-------|-------------------------|

E|-4-0-4-4-0-4-4---4-4---4-|-----------------------0-2-0-2-4-|
B|-3-----------0-3-----3---|---------0---0-1-3-1-3-----------|
G|-------------------------|-----1-2---2---------------------|
D|-------------0-----------|-2-4-----------------------------|
A|-------------------------|---------------------------------|
E|-0-----------------------|-0-------------------------------|

E|-5-------------|-0------0-------|-0--------------|-----0-----------|
B|-5-------0-2-3-|-2----2-2-----2-|-2------2-----2-|-----2-----0---0-|
G|-6-----2-------|----------------|------2---1-----|-2-----------2---|
D|-------0-------|----------------|------------3---|---------0-------|
A|-0-------------|-0------0-------|-0--------------|-0---------------|
E|---------------|----------------|--------0-------|-----------------|

E|-0-------------|-0------0-------|-0--------------|---------5-------|
B|-2-------0-2-3-|-2----2-2-----2-|-2------2-----2-|-----------------|
G|-------2-------|----------------|------2---1-----|-2---2---2-------|
D|-------0-------|----------------|------------3---|-----------------|
A|-0-------------|-0------0-------|-0--------------|-0---0---0-------|
E|---------------|----------------|--------0-------|-----------------|

E|-----------------||
B|-----------------||
G|-2---------------||
D|-----------------||
A|-0---------------||
E|-----------------||
Suggest correction
Give kudos to tab author, rate the tab!
1 2 3 4 5
comments
print report bad tab
guest
You may want to rate the tab now too:
select rating
Wanna post a correction for this tab? Suggest correction