Oops, an error
Loading. Please wait.

El Danubio Azul Bass Tab

136 views 6 this week
no commentswrite comment
1 2 3 4 5
3 more votes to show rating
add to favorites
launch autoscroll
font size
0
reset
guitar tuner
×
Best way to learn
"El Danubio Azul"
Autoscroll
slow
fast
+/-
esc
set tempo
stop
Guitarra bajo                                                               
G||------||---------------|-------0----0----|-------0----0----|
D||------||*--------------|-------2----2----|-------2----2----|
A||------||*--------------|--3--------------|--3--------------|
E||------||---------------|-----------------|-----------------|


                                                                        
-------0----0----|-------0----0----|-------0----0----|-------0----0----|
-------2----2----|-------2----2----|-------3----3----|-------3----3----|
--3--------------|--3--------------|--2--------------|--2--------------|
-----------------|-----------------|-----------------|-----------------|


                                                                        
-------0----0----|-------0----0----|-------0----0----|-------0----0----|
-------3----3----|-------3----3----|-------3----3----|-------3----3----|
--2--------------|--2--------------|--2--------------|--2--------------|
-----------------|-----------------|-----------------|-----------------|


                                                                        
-------0----0----|-------0----0----|-------0----0----|-------0----0----|
-------3----3----|-------3----3----|-------2----2----|-------2----2----|
--2--------------|--2--------------|--3--------------|--3--------------|
-----------------|-----------------|-----------------|-----------------|


                                                                            
-------0----0----|-------0----0----|-------0-----0-----|-------0-----0-----|
-------2----2----|-------2----2----|--2----10----10----|--2----10----10----|
--3--------------|--3--------------|-------------------|-------------------|
-----------------|-----------------|-------------------|-------------------|


                                                                               
-------0-----0-----|-------0-----0-----|-------2-----2-----|-------2-----5----|
--2----10----10----|--2----10----10----|--3----10----10----|--3----10----7----|
-------------------|-------------------|-------------------|------------------|
-------------------|-------------------|-------------------|------------------|


                                                                          
-------2-----2-----|------------2----|-------0----0----|-------0----0----|
--3----10----10----|--0----3---------|-------3----3----|-------3----3----|
-------------------|-----------------|--2--------------|--2--------------|
-------------------|-----------------|-----------------|-----------------|


                                                                         
-------0----0----|-------0----0----|-------0----0----|--0----4-----7----|
-------2----2----|-------2----2----|-------2----2----|-------12----9----|
--3--------------|--3--------------|--3--------------|------------------|
-----------------|-----------------|-----------------|------------------|


                                                                           
-----------------|--------------|------|------|------|------|------|------|
-----------------|--------------|------|------|------|------|------|------|
--3------3--3----|--------------|------|------|------|------|------|------|
-----------------|--------------|------|------|------|------|------|------|


                                                                      
------|------|------|------|------|------|------|------|------|------|
------|------|------|------|------|------|------|------|------|------|
------|------|------|------|------|------|------|------|------|------|
------|------|------|------|------|------|------|------|------|------|


                    
------------------||
------------------||
------------------||
------------------||
Suggest correction
Give kudos to tab author, rate the tab!
1 2 3 4 5
comments
print report bad tab
guest
You may want to rate the tab now too:
select rating
Wanna post a correction for this tab? Suggest correction