Oops, an error
Loading. Please wait.

El Danubio Azul Tab

839 views 3 this week
no commentswrite comment
1 2 3 4 5
3 more votes to show rating
add to favorites
launch autoscroll
font size
0
reset
how to read this tab
guitar tuner
×
Best way to learn
"El Danubio Azul"
Autoscroll
slow
fast
+/-
esc
set tempo
stop
e|-----0-3-3--15-15--12-12----
B|-1-1------------------------
G|----------------------------
D|----------------------------
A|----------------------------
E|----------------------------

e|-----0-3-3--15-15--13-13----
B|-1-1------------------------
G|----------------------------
D|----------------------------
A|----------------------------
E|----------------------------

e|-------5-5--17-17--13-13----
B|-0-0-3----------------------
G|----------------------------
D|----------------------------
A|----------------------------
E|----------------------------

e|-------5-5--17-17--12-12----
B|-0-0-3----------------------
G|----------------------------
D|----------------------------
A|----------------------------
E|----------------------------

e|-----0-3-8--7?-7?--15-15----
B|-1-1------------------------
G|----------------------------
D|----------------------------
A|----------------------------
E|----------------------------

e|-----0-3-8--7?-7?--17-17----
B|-1-1------------------------
G|----------------------------
D|----------------------------
A|----------------------------
E|----------------------------

e|-----1-5-5--2-3-12--8-0-0----5--3--8--
B|-3-3-----------------------3-------5--
G|--------------------------------------
D|--------------------------------------
A|--------------------------------------
E|--------------------------------------

mi e-mail: juanda0612@
Suggest correction
Give kudos to tab author, rate the tab!
1 2 3 4 5
comments
print report bad tab
guest
You may want to rate the tab now too:
select rating
Wanna post a correction for this tab? Suggest correction