Oops, an error
Loading. Please wait.

El Lago De Los Cisnes Tab

460 views 12 this week
no commentswrite comment
1 2 3 4 5
3 more votes to show rating
add to favorites
launch autoscroll
font size
0
reset
how to read this tab
guitar tuner
×
Best way to learn
"El Lago De Los Cisnes"
Autoscroll
slow
fast
+/-
esc
set tempo
stop
guitarra solista
                                                                           
E||-----------------------|----------------------|------------------------|
B||--0--------------------|--0---------0---------|--0---------------------|
G||-----------------0--2--|---------0---------0--|------------0--------0--|
D||-----------2--4--------|----------------------|---------2-----2--------|
A||-----------------------|----------------------|------------------3-----|
E||-----------------------|----------------------|------------------------|


                                                                      
----------------------|-----------------------|----------------------|
----------------------|--0--------------------|--0---------0---------|
-------------2--0-----|-----------------0--2--|---------0---------0--|
--2----------------4--|-----------2--4--------|----------------------|
----------------------|-----------------------|----------------------|
----------------------|-----------------------|----------------------|


                                                                     
------------------------|-------------------|-----------------------|
--0---------------------|--0----------------|-----------------0--1--|
------------0--------0--|-------------------|-------0----2----------|
---------2-----2--------|-------------------|--4--------------------|
------------------3-----|-------------------|-----------------------|
------------------------|-------------------|-----------------------|


                                                                      
-----------------------|--0-----------------0--|--2------0-----------|
--3------1--0----1--3--|---------3--1----3-----|------------0--------|
-----------------------|-----------------------|---------------------|
-----------------------|-----------------------|---------------------|
-----------------------|-----------------------|---------------------|
-----------------------|-----------------------|---------------------|


                                                                        
-----------------------|-----------------------|--0-----------------0--|
-----------------0--1--|--3------1--0----1--3--|---------3--1----3-----|
-------0----2----------|-----------------------|-----------------------|
--4--------------------|-----------------------|-----------------------|
-----------------------|-----------------------|-----------------------|
-----------------------|-----------------------|-----------------------|


                                                                        
--1-----------------1--|--2---------1---------||-----------------------|
---------1-------1-----|---------2------------||--0--------------------|
------------2----------|---------------------*||-----------------0--2--|
-----------------------|---------------------*||-----------2--4--------|
-----------------------|----------------------||-----------------------|
-----------------------|----------------------||-----------------------|


                                                                       
----------------------|------------------------|----------------------|
--0---------0---------|--0---------------------|----------------------|
---------0---------0--|------------0--------0--|-------------2--2-----|
----------------------|---------2-----2--------|--2----------------4--|
----------------------|------------------3-----|----------------------|
----------------------|------------------------|----------------------|


                                                                        
-----------------------|----------------------|------------------------|
--0--------------------|--0---------0---------|--0---------------------|
-----------------0--2--|---------0---------0--|------------0--------0--|
-----------2--4--------|----------------------|---------2-----2--------|
-----------------------|----------------------|------------------3-----|
-----------------------|----------------------|------------------------|


                                                             
-------------------|-------------------|--0----------------||
-------------------|-------------------|-------------------||
-------------------|-------------------|-------------------||
--2----------------|--2----------------|-------------------||
-------------------|-------------------|-------------------||
-------------------|-------------------|-------------------||
Suggest correction
Give kudos to tab author, rate the tab!
1 2 3 4 5
comments
print report bad tab
guest
You may want to rate the tab now too:
select rating
Wanna post a correction for this tab? Suggest correction